  0
SECTION
  2
HEADER
  9
$ACADVER
  1
AC1027
  9
$ACADMAINTVER
 70
     8
  9
$DWGCODEPAGE
  3
ANSI_1252
  9
$LASTSAVEDBY
  1
takayaiwamoto
  9
$REQUIREDVERSIONS
160
                 0
  9
$INSBASE
 10
0.0
 20
0.0
 30
0.0
  9
$EXTMIN
 10
-4.099999999999999
 20
-4.099999999999999
 30
0.0
  9
$EXTMAX
 10
4.099999999999999
 20
4.099999999999999
 30
0.0
  9
$LIMMIN
 10
0.0
 20
0.0
  9
$LIMMAX
 10
12.0
 20
9.0
  9
$ORTHOMODE
 70
     0
  9
$REGENMODE
 70
     1
  9
$FILLMODE
 70
     1
  9
$QTEXTMODE
 70
     0
  9
$MIRRTEXT
 70
     1
  9
$LTSCALE
 40
1.0
  9
$ATTMODE
 70
     1
  9
$TEXTSIZE
 40
0.2156873149445689
  9
$TRACEWID
 40
0.05
  9
$TEXTSTYLE
  7
style1
  9
$CLAYER
  8
VALLEYLINE
  9
$CELTYPE
  6
BYLAYER
  9
$CECOLOR
 62
   256
  9
$CELTSCALE
 40
1.0
  9
$DISPSILH
 70
     0
  9
$DIMSCALE
 40
1.0
  9
$DIMASZ
 40
0.18
  9
$DIMEXO
 40
0.0625
  9
$DIMDLI
 40
0.38
  9
$DIMRND
 40
0.0
  9
$DIMDLE
 40
0.0
  9
$DIMEXE
 40
0.18
  9
$DIMTP
 40
0.0
  9
$DIMTM
 40
0.0
  9
$DIMTXT
 40
0.18
  9
$DIMCEN
 40
0.09
  9
$DIMTSZ
 40
0.0
  9
$DIMTOL
 70
     0
  9
$DIMLIM
 70
     0
  9
$DIMTIH
 70
     1
  9
$DIMTOH
 70
     1
  9
$DIMSE1
 70
     0
  9
$DIMSE2
 70
     0
  9
$DIMTAD
 70
     0
  9
$DIMZIN
 70
     0
  9
$DIMBLK
  1

  9
$DIMASO
 70
     1
  9
$DIMSHO
 70
     1
  9
$DIMPOST
  1

  9
$DIMAPOST
  1

  9
$DIMALT
 70
     0
  9
$DIMALTD
 70
     2
  9
$DIMALTF
 40
25.4
  9
$DIMLFAC
 40
1.0
  9
$DIMTOFL
 70
     0
  9
$DIMTVP
 40
0.0
  9
$DIMTIX
 70
     0
  9
$DIMSOXD
 70
     0
  9
$DIMSAH
 70
     0
  9
$DIMBLK1
  1

  9
$DIMBLK2
  1

  9
$DIMSTYLE
  2
STANDARD
  9
$DIMCLRD
 70
     0
  9
$DIMCLRE
 70
     0
  9
$DIMCLRT
 70
     0
  9
$DIMTFAC
 40
1.0
  9
$DIMGAP
 40
0.09
  9
$DIMJUST
 70
     0
  9
$DIMSD1
 70
     0
  9
$DIMSD2
 70
     0
  9
$DIMTOLJ
 70
     1
  9
$DIMTZIN
 70
     0
  9
$DIMALTZ
 70
     0
  9
$DIMALTTZ
 70
     0
  9
$DIMUPT
 70
     0
  9
$DIMDEC
 70
     4
  9
$DIMTDEC
 70
     4
  9
$DIMALTU
 70
     2
  9
$DIMALTTD
 70
     2
  9
$DIMTXSTY
  7
STANDARD
  9
$DIMAUNIT
 70
     0
  9
$DIMADEC
 70
     0
  9
$DIMALTRND
 40
0.0
  9
$DIMAZIN
 70
     0
  9
$DIMDSEP
 70
    46
  9
$DIMATFIT
 70
     3
  9
$DIMFRAC
 70
     0
  9
$DIMLDRBLK
  1

  9
$DIMLUNIT
 70
     2
  9
$DIMLWD
 70
    -2
  9
$DIMLWE
 70
    -2
  9
$DIMTMOVE
 70
     0
  9
$DIMFXL
 40
1.0
  9
$DIMFXLON
 70
     0
  9
$DIMJOGANG
 40
0.7853981633974483
  9
$DIMTFILL
 70
     0
  9
$DIMTFILLCLR
 70
     0
  9
$DIMARCSYM
 70
     0
  9
$DIMLTYPE
  6

  9
$DIMLTEX1
  6

  9
$DIMLTEX2
  6

  9
$DIMTXTDIRECTION
 70
     0
  9
$LUNITS
 70
     2
  9
$LUPREC
 70
     4
  9
$SKETCHINC
 40
0.1
  9
$FILLETRAD
 40
0.5
  9
$AUNITS
 70
     0
  9
$AUPREC
 70
     0
  9
$MENU
  1
.
  9
$ELEVATION
 40
0.0
  9
$PELEVATION
 40
0.0
  9
$THICKNESS
 40
0.0
  9
$LIMCHECK
 70
     0
  9
$CHAMFERA
 40
0.5
  9
$CHAMFERB
 40
0.5
  9
$CHAMFERC
 40
1.0
  9
$CHAMFERD
 40
0.0
  9
$SKPOLY
 70
     0
  9
$TDCREATE
 40
2457508.912711273
  9
$TDUCREATE
 40
2457509.204377940
  9
$TDUPDATE
 40
2459714.379115752
  9
$TDUUPDATE
 40
2459714.670782419
  9
$TDINDWG
 40
0.0468538657
  9
$TDUSRTIMER
 40
0.0468535995
  9
$USRTIMER
 70
     1
  9
$ANGBASE
 50
0.0
  9
$ANGDIR
 70
     0
  9
$PDMODE
 70
    32
  9
$PDSIZE
 40
0.0
  9
$PLINEWID
 40
0.0
  9
$SPLFRAME
 70
     0
  9
$SPLINETYPE
 70
     6
  9
$SPLINESEGS
 70
     8
  9
$HANDSEED
  5
A4D
  9
$SURFTAB1
 70
     6
  9
$SURFTAB2
 70
     6
  9
$SURFTYPE
 70
     6
  9
$SURFU
 70
     6
  9
$SURFV
 70
     6
  9
$UCSBASE
  2

  9
$UCSNAME
  2

  9
$UCSORG
 10
0.0
 20
0.0
 30
0.0
  9
$UCSXDIR
 10
1.0
 20
0.0
 30
0.0
  9
$UCSYDIR
 10
0.0
 20
1.0
 30
0.0
  9
$UCSORTHOREF
  2

  9
$UCSORTHOVIEW
 70
     0
  9
$UCSORGTOP
 10
0.0
 20
0.0
 30
0.0
  9
$UCSORGBOTTOM
 10
0.0
 20
0.0
 30
0.0
  9
$UCSORGLEFT
 10
0.0
 20
0.0
 30
0.0
  9
$UCSORGRIGHT
 10
0.0
 20
0.0
 30
0.0
  9
$UCSORGFRONT
 10
0.0
 20
0.0
 30
0.0
  9
$UCSORGBACK
 10
0.0
 20
0.0
 30
0.0
  9
$PUCSBASE
  2

  9
$PUCSNAME
  2

  9
$PUCSORG
 10
0.0
 20
0.0
 30
0.0
  9
$PUCSXDIR
 10
1.0
 20
0.0
 30
0.0
  9
$PUCSYDIR
 10
0.0
 20
1.0
 30
0.0
  9
$PUCSORTHOREF
  2

  9
$PUCSORTHOVIEW
 70
     0
  9
$PUCSORGTOP
 10
0.0
 20
0.0
 30
0.0
  9
$PUCSORGBOTTOM
 10
0.0
 20
0.0
 30
0.0
  9
$PUCSORGLEFT
 10
0.0
 20
0.0
 30
0.0
  9
$PUCSORGRIGHT
 10
0.0
 20
0.0
 30
0.0
  9
$PUCSORGFRONT
 10
0.0
 20
0.0
 30
0.0
  9
$PUCSORGBACK
 10
0.0
 20
0.0
 30
0.0
  9
$USERI1
 70
     0
  9
$USERI2
 70
     0
  9
$USERI3
 70
     0
  9
$USERI4
 70
     0
  9
$USERI5
 70
     0
  9
$USERR1
 40
0.0
  9
$USERR2
 40
0.0
  9
$USERR3
 40
0.0
  9
$USERR4
 40
0.0
  9
$USERR5
 40
0.0
  9
$WORLDVIEW
 70
     1
  9
$SHADEDGE
 70
     3
  9
$SHADEDIF
 70
    70
  9
$TILEMODE
 70
     1
  9
$MAXACTVP
 70
    64
  9
$PINSBASE
 10
0.0
 20
0.0
 30
0.0
  9
$PLIMCHECK
 70
     0
  9
$PEXTMIN
 10
1.000000000000000E+20
 20
1.000000000000000E+20
 30
1.000000000000000E+20
  9
$PEXTMAX
 10
-1.000000000000000E+20
 20
-1.000000000000000E+20
 30
-1.000000000000000E+20
  9
$PLIMMIN
 10
0.0
 20
0.0
  9
$PLIMMAX
 10
12.0
 20
9.0
  9
$UNITMODE
 70
     0
  9
$VISRETAIN
 70
     1
  9
$PLINEGEN
 70
     0
  9
$PSLTSCALE
 70
     1
  9
$TREEDEPTH
 70
  3020
  9
$CMLSTYLE
  2
STANDARD
  9
$CMLJUST
 70
     0
  9
$CMLSCALE
 40
1.0
  9
$PROXYGRAPHICS
 70
     1
  9
$MEASUREMENT
 70
     0
  9
$CELWEIGHT
370
    -1
  9
$ENDCAPS
280
     0
  9
$JOINSTYLE
280
     0
  9
$LWDISPLAY
290
     1
  9
$INSUNITS
 70
     0
  9
$HYPERLINKBASE
  1

  9
$STYLESHEET
  1

  9
$XEDIT
290
     1
  9
$CEPSNTYPE
380
     0
  9
$PSTYLEMODE
290
     1
  9
$FINGERPRINTGUID
  2
{CAA85E11-F0EB-4EEE-B697-2CF897CA20FE}
  9
$VERSIONGUID
  2
{999F6C4A-95F9-4DAE-8C10-C54C1B135EB7}
  9
$EXTNAMES
290
     1
  9
$PSVPSCALE
 40
0.0
  9
$OLESTARTUP
290
     0
  9
$SORTENTS
280
   127
  9
$INDEXCTL
280
     0
  9
$HIDETEXT
280
     0
  9
$XCLIPFRAME
280
     2
  9
$HALOGAP
280
     0
  9
$OBSCOLOR
 70
   257
  9
$OBSLTYPE
280
     0
  9
$INTERSECTIONDISPLAY
280
     0
  9
$INTERSECTIONCOLOR
 70
   257
  9
$DIMASSOC
280
     1
  9
$PROJECTNAME
  1

  9
$CAMERADISPLAY
290
     0
  9
$LENSLENGTH
 40
50.0
  9
$CAMERAHEIGHT
 40
0.0
  9
$STEPSPERSEC
 40
2.0
  9
$STEPSIZE
 40
6.0
  9
$3DDWFPREC
 40
2.0
  9
$PSOLWIDTH
 40
0.25
  9
$PSOLHEIGHT
 40
4.0
  9
$LOFTANG1
 40
1.570796326794896
  9
$LOFTANG2
 40
1.570796326794896
  9
$LOFTMAG1
 40
0.0
  9
$LOFTMAG2
 40
0.0
  9
$LOFTPARAM
 70
     7
  9
$LOFTNORMALS
280
     1
  9
$LATITUDE
 40
37.795
  9
$LONGITUDE
 40
-122.394
  9
$NORTHDIRECTION
 40
0.0
  9
$TIMEZONE
 70
 -8000
  9
$LIGHTGLYPHDISPLAY
280
     1
  9
$TILEMODELIGHTSYNCH
280
     1
  9
$CMATERIAL
347
74E
  9
$SOLIDHIST
280
     0
  9
$SHOWHIST
280
     1
  9
$DWFFRAME
280
     2
  9
$DGNFRAME
280
     0
  9
$REALWORLDSCALE
290
     1
  9
$INTERFERECOLOR
 62
     1
  9
$INTERFEREOBJVS
345
33
  9
$INTERFEREVPVS
346
766
  9
$CSHADOW
280
     0
  9
$SHADOWPLANELOCATION
 40
0.0
  0
ENDSEC
  0
SECTION
  2
CLASSES
  0
CLASS
  1
ACDBDICTIONARYWDFLT
  2
AcDbDictionaryWithDefault
  3
ObjectDBX Classes
 90
        0
 91
        1
280
     0
281
     0
  0
CLASS
  1
VISUALSTYLE
  2
AcDbVisualStyle
  3
ObjectDBX Classes
 90
     4095
 91
       26
280
     0
281
     0
  0
CLASS
  1
MATERIAL
  2
AcDbMaterial
  3
ObjectDBX Classes
 90
     1153
 91
        3
280
     0
281
     0
  0
CLASS
  1
TABLESTYLE
  2
AcDbTableStyle
  3
ObjectDBX Classes
 90
     4095
 91
        1
280
     0
281
     0
  0
CLASS
  1
SCALE
  2
AcDbScale
  3
ObjectDBX Classes
 90
     1153
 91
       17
280
     0
281
     0
  0
CLASS
  1
MLEADERSTYLE
  2
AcDbMLeaderStyle
  3
ACDB_MLEADERSTYLE_CLASS
 90
     4095
 91
        1
280
     0
281
     0
  0
CLASS
  1
ACDBSECTIONVIEWSTYLE
  2
AcDbSectionViewStyle
  3
ObjectDBX Classes
 90
     1025
 91
        1
280
     0
281
     0
  0
CLASS
  1
ACDBDETAILVIEWSTYLE
  2
AcDbDetailViewStyle
  3
ObjectDBX Classes
 90
     1025
 91
        1
280
     0
281
     0
  0
CLASS
  1
DICTIONARYVAR
  2
AcDbDictionaryVar
  3
ObjectDBX Classes
 90
        0
 91
        9
280
     0
281
     0
  0
CLASS
  1
SORTENTSTABLE
  2
AcDbSortentsTable
  3
ObjectDBX Classes
 90
        0
 91
        1
280
     0
281
     0
  0
CLASS
  1
CELLSTYLEMAP
  2
AcDbCellStyleMap
  3
ObjectDBX Classes
 90
     1152
 91
        1
280
     0
281
     0
  0
ENDSEC
  0
SECTION
  2
TABLES
  0
TABLE
  2
VPORT
  5
8
330
0
100
AcDbSymbolTable
 70
     1
  0
VPORT
  5
29
330
8
100
AcDbSymbolTableRecord
100
AcDbViewportTableRecord
  2
*ACTIVE
 70
     0
 10
0.0
 20
0.0
 11
1.0
 21
1.0
 12
-105.0008259828644
 22
148.4999796178229
 13
0.0
 23
0.0
 14
0.5
 24
0.5
 15
0.5
 25
0.5
 16
0.0
 26
0.0
 36
1.0
 17
105.0008259828644
 27
-148.4999796178229
 37
0.0
 40
8.199999999999988
 41
1.0
 42
50.0
 43
0.0
 44
0.0
 50
0.0
 51
0.0
 71
     0
 72
   100
 73
     1
 74
     3
 75
     0
 76
     0
 77
     0
 78
     0
281
     0
 65
     1
110
0.0
120
0.0
130
0.0
111
1.0
121
0.0
131
0.0
112
0.0
122
1.0
132
0.0
 79
     0
146
0.0
348
2F
 60
     3
 61
     5
292
     1
282
     1
141
0.0
142
0.0
 63
   250
421
  3355443
1001
ACAD_NAV_VCDISPLAY
1070
     3
  0
ENDTAB
  0
TABLE
  2
LTYPE
  5
5
330
0
100
AcDbSymbolTable
 70
    90
  0
LTYPE
  5
14
330
5
100
AcDbSymbolTableRecord
100
AcDbLinetypeTableRecord
  2
BYBLOCK
 70
     0
  3

 72
    65
 73
     0
 40
0.0
  0
LTYPE
  5
15
330
5
100
AcDbSymbolTableRecord
100
AcDbLinetypeTableRecord
  2
BYLAYER
 70
     0
  3

 72
    65
 73
     0
 40
0.0
  0
LTYPE
  5
16
330
5
100
AcDbSymbolTableRecord
100
AcDbLinetypeTableRecord
  2
CONTINUOUS
 70
     0
  3
Solid line
 72
    65
 73
     0
 40
0.0
  0
LTYPE
  5
105
330
5
100
AcDbSymbolTableRecord
100
AcDbLinetypeTableRecord
  2
AI-LINETYPE-1
 70
     0
  3
Adobe Illustrator Linetype No. 1
 72
    65
 73
     2
 40
2.822222221516666
 49
1.411111110758332
 74
     0
 49
-1.411111110758332
 74
     0
  0
LTYPE
  5
10E
330
5
100
AcDbSymbolTableRecord
100
AcDbLinetypeTableRecord
  2
AI-LINETYPE-2
 70
     0
  3
Adobe Illustrator Linetype No. 2
 72
    65
 73
     2
 40
2.822222221516666
 49
1.411111110758332
 74
     0
 49
-1.411111110758332
 74
     0
  0
LTYPE
  5
117
330
5
100
AcDbSymbolTableRecord
100
AcDbLinetypeTableRecord
  2
AI-LINETYPE-3
 70
     0
  3
Adobe Illustrator Linetype No. 3
 72
    65
 73
     2
 40
2.822222221516666
 49
1.411111110758332
 74
     0
 49
-1.411111110758332
 74
     0
  0
LTYPE
  5
120
330
5
100
AcDbSymbolTableRecord
100
AcDbLinetypeTableRecord
  2
AI-LINETYPE-4
 70
     0
  3
Adobe Illustrator Linetype No. 4
 72
    65
 73
     2
 40
2.822222221516666
 49
1.411111110758332
 74
     0
 49
-1.411111110758332
 74
     0
  0
LTYPE
  5
129
330
5
100
AcDbSymbolTableRecord
100
AcDbLinetypeTableRecord
  2
AI-LINETYPE-5
 70
     0
  3
Adobe Illustrator Linetype No. 5
 72
    65
 73
     2
 40
2.822222221516666
 49
1.411111110758332
 74
     0
 49
-1.411111110758332
 74
     0
  0
LTYPE
  5
132
330
5
100
AcDbSymbolTableRecord
100
AcDbLinetypeTableRecord
  2
AI-LINETYPE-6
 70
     0
  3
Adobe Illustrator Linetype No. 6
 72
    65
 73
     2
 40
2.822222221516666
 49
1.411111110758332
 74
     0
 49
-1.411111110758332
 74
     0
  0
LTYPE
  5
13B
330
5
100
AcDbSymbolTableRecord
100
AcDbLinetypeTableRecord
  2
AI-LINETYPE-7
 70
     0
  3
Adobe Illustrator Linetype No. 7
 72
    65
 73
     2
 40
2.822222221516666
 49
1.411111110758332
 74
     0
 49
-1.411111110758332
 74
     0
  0
LTYPE
  5
144
330
5
100
AcDbSymbolTableRecord
100
AcDbLinetypeTableRecord
  2
AI-LINETYPE-8
 70
     0
  3
Adobe Illustrator Linetype No. 8
 72
    65
 73
     2
 40
2.822222221516666
 49
1.411111110758332
 74
     0
 49
-1.411111110758332
 74
     0
  0
LTYPE
  5
14D
330
5
100
AcDbSymbolTableRecord
100
AcDbLinetypeTableRecord
  2
AI-LINETYPE-9
 70
     0
  3
Adobe Illustrator Linetype No. 9
 72
    65
 73
     2
 40
2.822222221516666
 49
1.411111110758332
 74
     0
 49
-1.411111110758332
 74
     0
  0
LTYPE
  5
156
330
5
100
AcDbSymbolTableRecord
100
AcDbLinetypeTableRecord
  2
AI-LINETYPE-10
 70
     0
  3
Adobe Illustrator Linetype No. 10
 72
    65
 73
     2
 40
2.822222221516666
 49
1.411111110758332
 74
     0
 49
-1.411111110758332
 74
     0
  0
LTYPE
  5
15F
330
5
100
AcDbSymbolTableRecord
100
AcDbLinetypeTableRecord
  2
AI-LINETYPE-11
 70
     0
  3
Adobe Illustrator Linetype No. 11
 72
    65
 73
     2
 40
2.822222221516666
 49
1.411111110758332
 74
     0
 49
-1.411111110758332
 74
     0
  0
LTYPE
  5
168
330
5
100
AcDbSymbolTableRecord
100
AcDbLinetypeTableRecord
  2
AI-LINETYPE-12
 70
     0
  3
Adobe Illustrator Linetype No. 12
 72
    65
 73
     2
 40
2.822222221516666
 49
1.411111110758332
 74
     0
 49
-1.411111110758332
 74
     0
  0
LTYPE
  5
171
330
5
100
AcDbSymbolTableRecord
100
AcDbLinetypeTableRecord
  2
AI-LINETYPE-13
 70
     0
  3
Adobe Illustrator Linetype No. 13
 72
    65
 73
     2
 40
2.822222221516666
 49
1.411111110758332
 74
     0
 49
-1.411111110758332
 74
     0
  0
LTYPE
  5
17A
330
5
100
AcDbSymbolTableRecord
100
AcDbLinetypeTableRecord
  2
AI-LINETYPE-14
 70
     0
  3
Adobe Illustrator Linetype No. 14
 72
    65
 73
     2
 40
2.822222221516666
 49
1.411111110758332
 74
     0
 49
-1.411111110758332
 74
     0
  0
LTYPE
  5
183
330
5
100
AcDbSymbolTableRecord
100
AcDbLinetypeTableRecord
  2
AI-LINETYPE-15
 70
     0
  3
Adobe Illustrator Linetype No. 15
 72
    65
 73
     2
 40
2.822222221516666
 49
1.411111110758332
 74
     0
 49
-1.411111110758332
 74
     0
  0
LTYPE
  5
18C
330
5
100
AcDbSymbolTableRecord
100
AcDbLinetypeTableRecord
  2
AI-LINETYPE-16
 70
     0
  3
Adobe Illustrator Linetype No. 16
 72
    65
 73
     2
 40
2.822222221516666
 49
1.411111110758332
 74
     0
 49
-1.411111110758332
 74
     0
  0
LTYPE
  5
195
330
5
100
AcDbSymbolTableRecord
100
AcDbLinetypeTableRecord
  2
AI-LINETYPE-17
 70
     0
  3
Adobe Illustrator Linetype No. 17
 72
    65
 73
     2
 40
2.822222221516666
 49
1.411111110758332
 74
     0
 49
-1.411111110758332
 74
     0
  0
LTYPE
  5
19E
330
5
100
AcDbSymbolTableRecord
100
AcDbLinetypeTableRecord
  2
AI-LINETYPE-18
 70
     0
  3
Adobe Illustrator Linetype No. 18
 72
    65
 73
     2
 40
2.822222221516666
 49
1.411111110758332
 74
     0
 49
-1.411111110758332
 74
     0
  0
LTYPE
  5
1A7
330
5
100
AcDbSymbolTableRecord
100
AcDbLinetypeTableRecord
  2
AI-LINETYPE-19
 70
     0
  3
Adobe Illustrator Linetype No. 19
 72
    65
 73
     2
 40
2.822222221516666
 49
1.411111110758332
 74
     0
 49
-1.411111110758332
 74
     0
  0
LTYPE
  5
1B0
330
5
100
AcDbSymbolTableRecord
100
AcDbLinetypeTableRecord
  2
AI-LINETYPE-20
 70
     0
  3
Adobe Illustrator Linetype No. 20
 72
    65
 73
     2
 40
2.822222221516666
 49
1.411111110758332
 74
     0
 49
-1.411111110758332
 74
     0
  0
LTYPE
  5
1B9
330
5
100
AcDbSymbolTableRecord
100
AcDbLinetypeTableRecord
  2
AI-LINETYPE-21
 70
     0
  3
Adobe Illustrator Linetype No. 21
 72
    65
 73
     2
 40
2.822222221516666
 49
1.411111110758332
 74
     0
 49
-1.411111110758332
 74
     0
  0
LTYPE
  5
1C2
330
5
100
AcDbSymbolTableRecord
100
AcDbLinetypeTableRecord
  2
AI-LINETYPE-22
 70
     0
  3
Adobe Illustrator Linetype No. 22
 72
    65
 73
     2
 40
2.822222221516666
 49
1.411111110758332
 74
     0
 49
-1.411111110758332
 74
     0
  0
LTYPE
  5
1CB
330
5
100
AcDbSymbolTableRecord
100
AcDbLinetypeTableRecord
  2
AI-LINETYPE-23
 70
     0
  3
Adobe Illustrator Linetype No. 23
 72
    65
 73
     2
 40
2.822222221516666
 49
1.411111110758332
 74
     0
 49
-1.411111110758332
 74
     0
  0
LTYPE
  5
1D4
330
5
100
AcDbSymbolTableRecord
100
AcDbLinetypeTableRecord
  2
AI-LINETYPE-24
 70
     0
  3
Adobe Illustrator Linetype No. 24
 72
    65
 73
     2
 40
2.822222221516666
 49
1.411111110758332
 74
     0
 49
-1.411111110758332
 74
     0
  0
LTYPE
  5
1DD
330
5
100
AcDbSymbolTableRecord
100
AcDbLinetypeTableRecord
  2
AI-LINETYPE-25
 70
     0
  3
Adobe Illustrator Linetype No. 25
 72
    65
 73
     2
 40
2.822222221516666
 49
1.411111110758332
 74
     0
 49
-1.411111110758332
 74
     0
  0
LTYPE
  5
1E6
330
5
100
AcDbSymbolTableRecord
100
AcDbLinetypeTableRecord
  2
AI-LINETYPE-26
 70
     0
  3
Adobe Illustrator Linetype No. 26
 72
    65
 73
     2
 40
2.822222221516666
 49
1.411111110758332
 74
     0
 49
-1.411111110758332
 74
     0
  0
LTYPE
  5
1EF
330
5
100
AcDbSymbolTableRecord
100
AcDbLinetypeTableRecord
  2
AI-LINETYPE-27
 70
     0
  3
Adobe Illustrator Linetype No. 27
 72
    65
 73
     2
 40
2.822222221516666
 49
1.411111110758332
 74
     0
 49
-1.411111110758332
 74
     0
  0
LTYPE
  5
1F8
330
5
100
AcDbSymbolTableRecord
100
AcDbLinetypeTableRecord
  2
AI-LINETYPE-28
 70
     0
  3
Adobe Illustrator Linetype No. 28
 72
    65
 73
     2
 40
2.822222221516666
 49
1.411111110758332
 74
     0
 49
-1.411111110758332
 74
     0
  0
LTYPE
  5
201
330
5
100
AcDbSymbolTableRecord
100
AcDbLinetypeTableRecord
  2
AI-LINETYPE-29
 70
     0
  3
Adobe Illustrator Linetype No. 29
 72
    65
 73
     2
 40
2.822222221516666
 49
1.411111110758332
 74
     0
 49
-1.411111110758332
 74
     0
  0
LTYPE
  5
20A
330
5
100
AcDbSymbolTableRecord
100
AcDbLinetypeTableRecord
  2
AI-LINETYPE-30
 70
     0
  3
Adobe Illustrator Linetype No. 30
 72
    65
 73
     2
 40
2.822222221516666
 49
1.411111110758332
 74
     0
 49
-1.411111110758332
 74
     0
  0
LTYPE
  5
213
330
5
100
AcDbSymbolTableRecord
100
AcDbLinetypeTableRecord
  2
AI-LINETYPE-31
 70
     0
  3
Adobe Illustrator Linetype No. 31
 72
    65
 73
     2
 40
2.822222221516666
 49
1.411111110758332
 74
     0
 49
-1.411111110758332
 74
     0
  0
LTYPE
  5
21C
330
5
100
AcDbSymbolTableRecord
100
AcDbLinetypeTableRecord
  2
AI-LINETYPE-32
 70
     0
  3
Adobe Illustrator Linetype No. 32
 72
    65
 73
     2
 40
2.822222221516666
 49
1.411111110758332
 74
     0
 49
-1.411111110758332
 74
     0
  0
LTYPE
  5
225
330
5
100
AcDbSymbolTableRecord
100
AcDbLinetypeTableRecord
  2
AI-LINETYPE-33
 70
     0
  3
Adobe Illustrator Linetype No. 33
 72
    65
 73
     2
 40
2.822222221516666
 49
1.411111110758332
 74
     0
 49
-1.411111110758332
 74
     0
  0
LTYPE
  5
22E
330
5
100
AcDbSymbolTableRecord
100
AcDbLinetypeTableRecord
  2
AI-LINETYPE-34
 70
     0
  3
Adobe Illustrator Linetype No. 34
 72
    65
 73
     2
 40
2.822222221516666
 49
1.411111110758332
 74
     0
 49
-1.411111110758332
 74
     0
  0
LTYPE
  5
237
330
5
100
AcDbSymbolTableRecord
100
AcDbLinetypeTableRecord
  2
AI-LINETYPE-35
 70
     0
  3
Adobe Illustrator Linetype No. 35
 72
    65
 73
     2
 40
2.822222221516666
 49
1.411111110758332
 74
     0
 49
-1.411111110758332
 74
     0
  0
LTYPE
  5
240
330
5
100
AcDbSymbolTableRecord
100
AcDbLinetypeTableRecord
  2
AI-LINETYPE-36
 70
     0
  3
Adobe Illustrator Linetype No. 36
 72
    65
 73
     2
 40
2.822222221516666
 49
1.411111110758332
 74
     0
 49
-1.411111110758332
 74
     0
  0
LTYPE
  5
249
330
5
100
AcDbSymbolTableRecord
100
AcDbLinetypeTableRecord
  2
AI-LINETYPE-37
 70
     0
  3
Adobe Illustrator Linetype No. 37
 72
    65
 73
     2
 40
2.822222221516666
 49
1.411111110758332
 74
     0
 49
-1.411111110758332
 74
     0
  0
LTYPE
  5
252
330
5
100
AcDbSymbolTableRecord
100
AcDbLinetypeTableRecord
  2
AI-LINETYPE-38
 70
     0
  3
Adobe Illustrator Linetype No. 38
 72
    65
 73
     2
 40
2.822222221516666
 49
1.411111110758332
 74
     0
 49
-1.411111110758332
 74
     0
  0
LTYPE
  5
25B
330
5
100
AcDbSymbolTableRecord
100
AcDbLinetypeTableRecord
  2
AI-LINETYPE-39
 70
     0
  3
Adobe Illustrator Linetype No. 39
 72
    65
 73
     2
 40
2.822222221516666
 49
1.411111110758332
 74
     0
 49
-1.411111110758332
 74
     0
  0
LTYPE
  5
264
330
5
100
AcDbSymbolTableRecord
100
AcDbLinetypeTableRecord
  2
AI-LINETYPE-40
 70
     0
  3
Adobe Illustrator Linetype No. 40
 72
    65
 73
     2
 40
2.822222221516666
 49
1.411111110758332
 74
     0
 49
-1.411111110758332
 74
     0
  0
LTYPE
  5
26D
330
5
100
AcDbSymbolTableRecord
100
AcDbLinetypeTableRecord
  2
AI-LINETYPE-41
 70
     0
  3
Adobe Illustrator Linetype No. 41
 72
    65
 73
     2
 40
2.822222221516666
 49
1.411111110758332
 74
     0
 49
-1.411111110758332
 74
     0
  0
LTYPE
  5
276
330
5
100
AcDbSymbolTableRecord
100
AcDbLinetypeTableRecord
  2
AI-LINETYPE-42
 70
     0
  3
Adobe Illustrator Linetype No. 42
 72
    65
 73
     2
 40
2.822222221516666
 49
1.411111110758332
 74
     0
 49
-1.411111110758332
 74
     0
  0
LTYPE
  5
27F
330
5
100
AcDbSymbolTableRecord
100
AcDbLinetypeTableRecord
  2
AI-LINETYPE-43
 70
     0
  3
Adobe Illustrator Linetype No. 43
 72
    65
 73
     2
 40
2.822222221516666
 49
1.411111110758332
 74
     0
 49
-1.411111110758332
 74
     0
  0
LTYPE
  5
288
330
5
100
AcDbSymbolTableRecord
100
AcDbLinetypeTableRecord
  2
AI-LINETYPE-44
 70
     0
  3
Adobe Illustrator Linetype No. 44
 72
    65
 73
     2
 40
2.822222221516666
 49
1.411111110758332
 74
     0
 49
-1.411111110758332
 74
     0
  0
LTYPE
  5
291
330
5
100
AcDbSymbolTableRecord
100
AcDbLinetypeTableRecord
  2
AI-LINETYPE-45
 70
     0
  3
Adobe Illustrator Linetype No. 45
 72
    65
 73
     2
 40
2.822222221516666
 49
1.411111110758332
 74
     0
 49
-1.411111110758332
 74
     0
  0
LTYPE
  5
29A
330
5
100
AcDbSymbolTableRecord
100
AcDbLinetypeTableRecord
  2
AI-LINETYPE-46
 70
     0
  3
Adobe Illustrator Linetype No. 46
 72
    65
 73
     2
 40
2.822222221516666
 49
1.411111110758332
 74
     0
 49
-1.411111110758332
 74
     0
  0
LTYPE
  5
2A3
330
5
100
AcDbSymbolTableRecord
100
AcDbLinetypeTableRecord
  2
AI-LINETYPE-47
 70
     0
  3
Adobe Illustrator Linetype No. 47
 72
    65
 73
     2
 40
2.822222221516666
 49
1.411111110758332
 74
     0
 49
-1.411111110758332
 74
     0
  0
LTYPE
  5
2AC
330
5
100
AcDbSymbolTableRecord
100
AcDbLinetypeTableRecord
  2
AI-LINETYPE-48
 70
     0
  3
Adobe Illustrator Linetype No. 48
 72
    65
 73
     2
 40
2.822222221516666
 49
1.411111110758332
 74
     0
 49
-1.411111110758332
 74
     0
  0
LTYPE
  5
2B5
330
5
100
AcDbSymbolTableRecord
100
AcDbLinetypeTableRecord
  2
AI-LINETYPE-49
 70
     0
  3
Adobe Illustrator Linetype No. 49
 72
    65
 73
     2
 40
2.822222221516666
 49
1.411111110758332
 74
     0
 49
-1.411111110758332
 74
     0
  0
LTYPE
  5
2BE
330
5
100
AcDbSymbolTableRecord
100
AcDbLinetypeTableRecord
  2
AI-LINETYPE-50
 70
     0
  3
Adobe Illustrator Linetype No. 50
 72
    65
 73
     2
 40
2.822222221516666
 49
1.411111110758332
 74
     0
 49
-1.411111110758332
 74
     0
  0
LTYPE
  5
2C7
330
5
100
AcDbSymbolTableRecord
100
AcDbLinetypeTableRecord
  2
AI-LINETYPE-51
 70
     0
  3
Adobe Illustrator Linetype No. 51
 72
    65
 73
     2
 40
2.822222221516666
 49
1.411111110758332
 74
     0
 49
-1.411111110758332
 74
     0
  0
LTYPE
  5
2D0
330
5
100
AcDbSymbolTableRecord
100
AcDbLinetypeTableRecord
  2
AI-LINETYPE-52
 70
     0
  3
Adobe Illustrator Linetype No. 52
 72
    65
 73
     2
 40
2.822222221516666
 49
1.411111110758332
 74
     0
 49
-1.411111110758332
 74
     0
  0
LTYPE
  5
2D9
330
5
100
AcDbSymbolTableRecord
100
AcDbLinetypeTableRecord
  2
AI-LINETYPE-53
 70
     0
  3
Adobe Illustrator Linetype No. 53
 72
    65
 73
     2
 40
2.822222221516666
 49
1.411111110758332
 74
     0
 49
-1.411111110758332
 74
     0
  0
LTYPE
  5
2E2
330
5
100
AcDbSymbolTableRecord
100
AcDbLinetypeTableRecord
  2
AI-LINETYPE-54
 70
     0
  3
Adobe Illustrator Linetype No. 54
 72
    65
 73
     2
 40
2.822222221516666
 49
1.411111110758332
 74
     0
 49
-1.411111110758332
 74
     0
  0
LTYPE
  5
2EB
330
5
100
AcDbSymbolTableRecord
100
AcDbLinetypeTableRecord
  2
AI-LINETYPE-55
 70
     0
  3
Adobe Illustrator Linetype No. 55
 72
    65
 73
     2
 40
2.822222221516666
 49
1.411111110758332
 74
     0
 49
-1.411111110758332
 74
     0
  0
LTYPE
  5
2F4
330
5
100
AcDbSymbolTableRecord
100
AcDbLinetypeTableRecord
  2
AI-LINETYPE-56
 70
     0
  3
Adobe Illustrator Linetype No. 56
 72
    65
 73
     2
 40
2.822222221516666
 49
1.411111110758332
 74
     0
 49
-1.411111110758332
 74
     0
  0
LTYPE
  5
2FD
330
5
100
AcDbSymbolTableRecord
100
AcDbLinetypeTableRecord
  2
AI-LINETYPE-57
 70
     0
  3
Adobe Illustrator Linetype No. 57
 72
    65
 73
     2
 40
2.822222221516666
 49
1.411111110758332
 74
     0
 49
-1.411111110758332
 74
     0
  0
LTYPE
  5
306
330
5
100
AcDbSymbolTableRecord
100
AcDbLinetypeTableRecord
  2
AI-LINETYPE-58
 70
     0
  3
Adobe Illustrator Linetype No. 58
 72
    65
 73
     2
 40
2.822222221516666
 49
1.411111110758332
 74
     0
 49
-1.411111110758332
 74
     0
  0
LTYPE
  5
30F
330
5
100
AcDbSymbolTableRecord
100
AcDbLinetypeTableRecord
  2
AI-LINETYPE-59
 70
     0
  3
Adobe Illustrator Linetype No. 59
 72
    65
 73
     2
 40
2.822222221516666
 49
1.411111110758332
 74
     0
 49
-1.411111110758332
 74
     0
  0
LTYPE
  5
318
330
5
100
AcDbSymbolTableRecord
100
AcDbLinetypeTableRecord
  2
AI-LINETYPE-60
 70
     0
  3
Adobe Illustrator Linetype No. 60
 72
    65
 73
     2
 40
2.822222221516666
 49
1.411111110758332
 74
     0
 49
-1.411111110758332
 74
     0
  0
LTYPE
  5
321
330
5
100
AcDbSymbolTableRecord
100
AcDbLinetypeTableRecord
  2
AI-LINETYPE-61
 70
     0
  3
Adobe Illustrator Linetype No. 61
 72
    65
 73
     2
 40
2.822222221516666
 49
1.411111110758332
 74
     0
 49
-1.411111110758332
 74
     0
  0
LTYPE
  5
32A
330
5
100
AcDbSymbolTableRecord
100
AcDbLinetypeTableRecord
  2
AI-LINETYPE-62
 70
     0
  3
Adobe Illustrator Linetype No. 62
 72
    65
 73
     2
 40
2.822222221516666
 49
1.411111110758332
 74
     0
 49
-1.411111110758332
 74
     0
  0
LTYPE
  5
333
330
5
100
AcDbSymbolTableRecord
100
AcDbLinetypeTableRecord
  2
AI-LINETYPE-63
 70
     0
  3
Adobe Illustrator Linetype No. 63
 72
    65
 73
     2
 40
2.822222221516666
 49
1.411111110758332
 74
     0
 49
-1.411111110758332
 74
     0
  0
LTYPE
  5
33C
330
5
100
AcDbSymbolTableRecord
100
AcDbLinetypeTableRecord
  2
AI-LINETYPE-64
 70
     0
  3
Adobe Illustrator Linetype No. 64
 72
    65
 73
     2
 40
2.822222221516666
 49
1.411111110758332
 74
     0
 49
-1.411111110758332
 74
     0
  0
LTYPE
  5
345
330
5
100
AcDbSymbolTableRecord
100
AcDbLinetypeTableRecord
  2
AI-LINETYPE-65
 70
     0
  3
Adobe Illustrator Linetype No. 65
 72
    65
 73
     2
 40
2.822222221516666
 49
1.411111110758332
 74
     0
 49
-1.411111110758332
 74
     0
  0
LTYPE
  5
34E
330
5
100
AcDbSymbolTableRecord
100
AcDbLinetypeTableRecord
  2
AI-LINETYPE-66
 70
     0
  3
Adobe Illustrator Linetype No. 66
 72
    65
 73
     2
 40
2.822222221516666
 49
1.411111110758332
 74
     0
 49
-1.411111110758332
 74
     0
  0
LTYPE
  5
357
330
5
100
AcDbSymbolTableRecord
100
AcDbLinetypeTableRecord
  2
AI-LINETYPE-67
 70
     0
  3
Adobe Illustrator Linetype No. 67
 72
    65
 73
     2
 40
2.822222221516666
 49
1.411111110758332
 74
     0
 49
-1.411111110758332
 74
     0
  0
LTYPE
  5
360
330
5
100
AcDbSymbolTableRecord
100
AcDbLinetypeTableRecord
  2
AI-LINETYPE-68
 70
     0
  3
Adobe Illustrator Linetype No. 68
 72
    65
 73
     2
 40
2.822222221516666
 49
1.411111110758332
 74
     0
 49
-1.411111110758332
 74
     0
  0
LTYPE
  5
369
330
5
100
AcDbSymbolTableRecord
100
AcDbLinetypeTableRecord
  2
AI-LINETYPE-69
 70
     0
  3
Adobe Illustrator Linetype No. 69
 72
    65
 73
     2
 40
2.822222221516666
 49
1.411111110758332
 74
     0
 49
-1.411111110758332
 74
     0
  0
LTYPE
  5
372
330
5
100
AcDbSymbolTableRecord
100
AcDbLinetypeTableRecord
  2
AI-LINETYPE-70
 70
     0
  3
Adobe Illustrator Linetype No. 70
 72
    65
 73
     2
 40
2.822222221516666
 49
1.411111110758332
 74
     0
 49
-1.411111110758332
 74
     0
  0
LTYPE
  5
37B
330
5
100
AcDbSymbolTableRecord
100
AcDbLinetypeTableRecord
  2
AI-LINETYPE-71
 70
     0
  3
Adobe Illustrator Linetype No. 71
 72
    65
 73
     2
 40
2.822222221516666
 49
1.411111110758332
 74
     0
 49
-1.411111110758332
 74
     0
  0
LTYPE
  5
384
330
5
100
AcDbSymbolTableRecord
100
AcDbLinetypeTableRecord
  2
AI-LINETYPE-72
 70
     0
  3
Adobe Illustrator Linetype No. 72
 72
    65
 73
     2
 40
2.822222221516666
 49
1.411111110758332
 74
     0
 49
-1.411111110758332
 74
     0
  0
LTYPE
  5
38D
330
5
100
AcDbSymbolTableRecord
100
AcDbLinetypeTableRecord
  2
AI-LINETYPE-73
 70
     0
  3
Adobe Illustrator Linetype No. 73
 72
    65
 73
     2
 40
2.822222221516666
 49
1.411111110758332
 74
     0
 49
-1.411111110758332
 74
     0
  0
LTYPE
  5
396
330
5
100
AcDbSymbolTableRecord
100
AcDbLinetypeTableRecord
  2
AI-LINETYPE-74
 70
     0
  3
Adobe Illustrator Linetype No. 74
 72
    65
 73
     2
 40
2.822222221516666
 49
1.411111110758332
 74
     0
 49
-1.411111110758332
 74
     0
  0
LTYPE
  5
39F
330
5
100
AcDbSymbolTableRecord
100
AcDbLinetypeTableRecord
  2
AI-LINETYPE-75
 70
     0
  3
Adobe Illustrator Linetype No. 75
 72
    65
 73
     2
 40
2.822222221516666
 49
1.411111110758332
 74
     0
 49
-1.411111110758332
 74
     0
  0
LTYPE
  5
3A8
330
5
100
AcDbSymbolTableRecord
100
AcDbLinetypeTableRecord
  2
AI-LINETYPE-76
 70
     0
  3
Adobe Illustrator Linetype No. 76
 72
    65
 73
     2
 40
2.822222221516666
 49
1.411111110758332
 74
     0
 49
-1.411111110758332
 74
     0
  0
LTYPE
  5
3B1
330
5
100
AcDbSymbolTableRecord
100
AcDbLinetypeTableRecord
  2
AI-LINETYPE-77
 70
     0
  3
Adobe Illustrator Linetype No. 77
 72
    65
 73
     2
 40
2.822222221516666
 49
1.411111110758332
 74
     0
 49
-1.411111110758332
 74
     0
  0
LTYPE
  5
3BA
330
5
100
AcDbSymbolTableRecord
100
AcDbLinetypeTableRecord
  2
AI-LINETYPE-78
 70
     0
  3
Adobe Illustrator Linetype No. 78
 72
    65
 73
     2
 40
2.822222221516666
 49
1.411111110758332
 74
     0
 49
-1.411111110758332
 74
     0
  0
LTYPE
  5
3C3
330
5
100
AcDbSymbolTableRecord
100
AcDbLinetypeTableRecord
  2
AI-LINETYPE-79
 70
     0
  3
Adobe Illustrator Linetype No. 79
 72
    65
 73
     2
 40
2.822222221516666
 49
1.411111110758332
 74
     0
 49
-1.411111110758332
 74
     0
  0
LTYPE
  5
3CC
330
5
100
AcDbSymbolTableRecord
100
AcDbLinetypeTableRecord
  2
AI-LINETYPE-80
 70
     0
  3
Adobe Illustrator Linetype No. 80
 72
    65
 73
     2
 40
2.822222221516666
 49
1.411111110758332
 74
     0
 49
-1.411111110758332
 74
     0
  0
LTYPE
  5
3D5
330
5
100
AcDbSymbolTableRecord
100
AcDbLinetypeTableRecord
  2
AI-LINETYPE-81
 70
     0
  3
Adobe Illustrator Linetype No. 81
 72
    65
 73
     2
 40
2.822222221516666
 49
1.411111110758332
 74
     0
 49
-1.411111110758332
 74
     0
  0
LTYPE
  5
3DE
330
5
100
AcDbSymbolTableRecord
100
AcDbLinetypeTableRecord
  2
AI-LINETYPE-82
 70
     0
  3
Adobe Illustrator Linetype No. 82
 72
    65
 73
     2
 40
2.822222221516666
 49
1.411111110758332
 74
     0
 49
-1.411111110758332
 74
     0
  0
LTYPE
  5
3E7
330
5
100
AcDbSymbolTableRecord
100
AcDbLinetypeTableRecord
  2
AI-LINETYPE-83
 70
     0
  3
Adobe Illustrator Linetype No. 83
 72
    65
 73
     2
 40
2.822222221516666
 49
1.411111110758332
 74
     0
 49
-1.411111110758332
 74
     0
  0
LTYPE
  5
3F0
330
5
100
AcDbSymbolTableRecord
100
AcDbLinetypeTableRecord
  2
AI-LINETYPE-84
 70
     0
  3
Adobe Illustrator Linetype No. 84
 72
    65
 73
     2
 40
2.822222221516666
 49
1.411111110758332
 74
     0
 49
-1.411111110758332
 74
     0
  0
LTYPE
  5
3F9
330
5
100
AcDbSymbolTableRecord
100
AcDbLinetypeTableRecord
  2
AI-LINETYPE-85
 70
     0
  3
Adobe Illustrator Linetype No. 85
 72
    65
 73
     2
 40
2.822222221516666
 49
1.411111110758332
 74
     0
 49
-1.411111110758332
 74
     0
  0
LTYPE
  5
402
330
5
100
AcDbSymbolTableRecord
100
AcDbLinetypeTableRecord
  2
AI-LINETYPE-86
 70
     0
  3
Adobe Illustrator Linetype No. 86
 72
    65
 73
     2
 40
2.822222221516666
 49
1.411111110758332
 74
     0
 49
-1.411111110758332
 74
     0
  0
LTYPE
  5
40B
330
5
100
AcDbSymbolTableRecord
100
AcDbLinetypeTableRecord
  2
AI-LINETYPE-87
 70
     0
  3
Adobe Illustrator Linetype No. 87
 72
    65
 73
     2
 40
2.822222221516666
 49
1.411111110758332
 74
     0
 49
-1.411111110758332
 74
     0
  0
LTYPE
  5
787
330
5
100
AcDbSymbolTableRecord
100
AcDbLinetypeTableRecord
  2
PHANTOM2
 70
     0
  3
Phantom (.5x) ___ _ _ ___ _ _ ___ _ _ ___ _ _
 72
    65
 73
     6
 40
1.25
 49
0.625
 74
     0
 49
-0.125
 74
     0
 49
0.125
 74
     0
 49
-0.125
 74
     0
 49
0.125
 74
     0
 49
-0.125
 74
     0
  0
LTYPE
  5
7C5
330
5
100
AcDbSymbolTableRecord
100
AcDbLinetypeTableRecord
  2
ACAD_ISO03W100
 70
     0
  3
ISO dash space __    __    __    __    __    __
 72
    65
 73
     2
 40
30.0
 49
12.0
 74
     0
 49
-18.0
 74
     0
  0
ENDTAB
  0
TABLE
  2
LAYER
  5
2
102
{ACAD_XDICTIONARY
360
7B3
102
}
330
0
100
AcDbSymbolTable
 70
     5
  0
LAYER
  5
10
102
{ACAD_XDICTIONARY
360
791
102
}
330
2
100
AcDbSymbolTableRecord
100
AcDbLayerTableRecord
  2
0
 70
     0
 62
     7
  6
CONTINUOUS
370
    -3
390
74C
347
75E
348
0
  0
LAYER
  5
3B
102
{ACAD_XDICTIONARY
360
793
102
}
330
2
100
AcDbSymbolTableRecord
100
AcDbLayerTableRecord
  2
CUTLINE
 70
     0
 62
     7
  6
CONTINUOUS
370
    -3
390
74C
347
75E
348
0
  0
LAYER
  5
FC
102
{ACAD_XDICTIONARY
360
795
102
}
330
2
100
AcDbSymbolTableRecord
100
AcDbLayerTableRecord
  2
VALLEYLINE
 70
     0
 62
     7
  6
CONTINUOUS
370
    -3
390
74C
347
75E
348
0
  0
LAYER
  5
40C
102
{ACAD_XDICTIONARY
360
797
102
}
330
2
100
AcDbSymbolTableRecord
100
AcDbLayerTableRecord
  2
MOUNTAINLINE
 70
     0
 62
     7
  6
CONTINUOUS
370
    -3
390
74C
347
75E
348
0
  0
LAYER
  5
745
102
{ACAD_XDICTIONARY
360
799
102
}
330
2
100
AcDbSymbolTableRecord
100
AcDbLayerTableRecord
  2
TEXT
 70
     0
 62
     7
  6
CONTINUOUS
370
    -3
390
74C
347
75E
348
0
  0
ENDTAB
  0
TABLE
  2
STYLE
  5
3
330
0
100
AcDbSymbolTable
 70
     3
  0
STYLE
  5
11
330
3
100
AcDbSymbolTableRecord
100
AcDbTextStyleTableRecord
  2
STANDARD
 70
     0
 40
0.0
 41
1.0
 50
0.0
 71
     0
 42
0.2156873149445689
  3
UD Digi Kyokasho N-R.ttf
  4

1001
ACAD
1000
UD Digi Kyokasho N-R
1071
       17
  0
STYLE
  5
7C4
330
3
100
AcDbSymbolTableRecord
100
AcDbTextStyleTableRecord
  2

 70
     1
 40
0.0
 41
1.0
 50
0.0
 71
     0
 42
0.2
  3
ltypeshp.shx
  4

  0
STYLE
  5
966
330
3
100
AcDbSymbolTableRecord
100
AcDbTextStyleTableRecord
  2
style1
 70
     0
 40
0.0
 41
1.0
 50
0.0
 71
     0
 42
0.2156873149445689
  3
arial.ttf
  4

1001
ACAD
1000
Arial
1071
       34
  0
ENDTAB
  0
TABLE
  2
VIEW
  5
6
330
0
100
AcDbSymbolTable
 70
     0
  0
ENDTAB
  0
TABLE
  2
UCS
  5
7
330
0
100
AcDbSymbolTable
 70
     0
  0
ENDTAB
  0
TABLE
  2
APPID
  5
9
330
0
100
AcDbSymbolTable
 70
     5
  0
APPID
  5
12
330
9
100
AcDbSymbolTableRecord
100
AcDbRegAppTableRecord
  2
ACAD
 70
     0
  0
APPID
  5
79B
330
9
100
AcDbSymbolTableRecord
100
AcDbRegAppTableRecord
  2
ACAD_NAV_VCDISPLAY
 70
     0
  0
APPID
  5
7A7
330
9
100
AcDbSymbolTableRecord
100
AcDbRegAppTableRecord
  2
ACAD_EXEMPT_FROM_CAD_STANDARDS
 70
     0
  0
APPID
  5
965
330
9
100
AcDbSymbolTableRecord
100
AcDbRegAppTableRecord
  2
AcadAnnoPO
 70
     0
  0
APPID
  5
96F
330
9
100
AcDbSymbolTableRecord
100
AcDbRegAppTableRecord
  2
ACAD_PSEXT
 70
     0
  0
ENDTAB
  0
TABLE
  2
DIMSTYLE
  5
A
330
0
100
AcDbSymbolTable
 70
     1
100
AcDbDimStyleTable
 71
     1
340
27
  0
DIMSTYLE
105
27
330
A
100
AcDbSymbolTableRecord
100
AcDbDimStyleTableRecord
  2
STANDARD
 70
     0
340
11
  0
ENDTAB
  0
TABLE
  2
BLOCK_RECORD
  5
1
330
0
100
AcDbSymbolTable
 70
   214
  0
BLOCK_RECORD
  5
1F
102
{ACAD_XDICTIONARY
360
7C7
102
}
330
1
100
AcDbSymbolTableRecord
100
AcDbBlockTableRecord
  2
*MODEL_SPACE
340
78B
 70
     0
280
     1
281
     0
  0
BLOCK_RECORD
  5
1B
330
1
100
AcDbSymbolTableRecord
100
AcDbBlockTableRecord
  2
*PAPER_SPACE
340
78C
 70
     0
280
     1
281
     0
  0
BLOCK_RECORD
  5
3C
330
1
100
AcDbSymbolTableRecord
100
AcDbBlockTableRecord
  2
BLOCK_2
340
0
 70
     0
280
     1
281
     0
  0
BLOCK_RECORD
  5
44
330
1
100
AcDbSymbolTableRecord
100
AcDbBlockTableRecord
  2
BLOCK_3
340
0
 70
     0
280
     1
281
     0
  0
BLOCK_RECORD
  5
4C
330
1
100
AcDbSymbolTableRecord
100
AcDbBlockTableRecord
  2
BLOCK_4
340
0
 70
     0
280
     1
281
     0
  0
BLOCK_RECORD
  5
54
330
1
100
AcDbSymbolTableRecord
100
AcDbBlockTableRecord
  2
BLOCK_5
340
0
 70
     0
280
     1
281
     0
  0
BLOCK_RECORD
  5
5C
330
1
100
AcDbSymbolTableRecord
100
AcDbBlockTableRecord
  2
BLOCK_6
340
0
 70
     0
280
     1
281
     0
  0
BLOCK_RECORD
  5
64
330
1
100
AcDbSymbolTableRecord
100
AcDbBlockTableRecord
  2
BLOCK_7
340
0
 70
     0
280
     1
281
     0
  0
BLOCK_RECORD
  5
6C
330
1
100
AcDbSymbolTableRecord
100
AcDbBlockTableRecord
  2
BLOCK_8
340
0
 70
     0
280
     1
281
     0
  0
BLOCK_RECORD
  5
74
330
1
100
AcDbSymbolTableRecord
100
AcDbBlockTableRecord
  2
BLOCK_9
340
0
 70
     0
280
     1
281
     0
  0
BLOCK_RECORD
  5
7C
330
1
100
AcDbSymbolTableRecord
100
AcDbBlockTableRecord
  2
BLOCK_10
340
0
 70
     0
280
     1
281
     0
  0
BLOCK_RECORD
  5
84
330
1
100
AcDbSymbolTableRecord
100
AcDbBlockTableRecord
  2
BLOCK_11
340
0
 70
     0
280
     1
281
     0
  0
BLOCK_RECORD
  5
8C
330
1
100
AcDbSymbolTableRecord
100
AcDbBlockTableRecord
  2
BLOCK_12
340
0
 70
     0
280
     1
281
     0
  0
BLOCK_RECORD
  5
94
330
1
100
AcDbSymbolTableRecord
100
AcDbBlockTableRecord
  2
BLOCK_13
340
0
 70
     0
280
     1
281
     0
  0
BLOCK_RECORD
  5
9C
330
1
100
AcDbSymbolTableRecord
100
AcDbBlockTableRecord
  2
BLOCK_14
340
0
 70
     0
280
     1
281
     0
  0
BLOCK_RECORD
  5
A4
330
1
100
AcDbSymbolTableRecord
100
AcDbBlockTableRecord
  2
BLOCK_15
340
0
 70
     0
280
     1
281
     0
  0
BLOCK_RECORD
  5
AC
330
1
100
AcDbSymbolTableRecord
100
AcDbBlockTableRecord
  2
BLOCK_16
340
0
 70
     0
280
     1
281
     0
  0
BLOCK_RECORD
  5
B4
330
1
100
AcDbSymbolTableRecord
100
AcDbBlockTableRecord
  2
BLOCK_17
340
0
 70
     0
280
     1
281
     0
  0
BLOCK_RECORD
  5
BC
330
1
100
AcDbSymbolTableRecord
100
AcDbBlockTableRecord
  2
BLOCK_18
340
0
 70
     0
280
     1
281
     0
  0
BLOCK_RECORD
  5
C4
330
1
100
AcDbSymbolTableRecord
100
AcDbBlockTableRecord
  2
BLOCK_19
340
0
 70
     0
280
     1
281
     0
  0
BLOCK_RECORD
  5
CC
330
1
100
AcDbSymbolTableRecord
100
AcDbBlockTableRecord
  2
BLOCK_20
340
0
 70
     0
280
     1
281
     0
  0
BLOCK_RECORD
  5
D4
330
1
100
AcDbSymbolTableRecord
100
AcDbBlockTableRecord
  2
BLOCK_21
340
0
 70
     0
280
     1
281
     0
  0
BLOCK_RECORD
  5
DC
330
1
100
AcDbSymbolTableRecord
100
AcDbBlockTableRecord
  2
BLOCK_22
340
0
 70
     0
280
     1
281
     0
  0
BLOCK_RECORD
  5
E4
330
1
100
AcDbSymbolTableRecord
100
AcDbBlockTableRecord
  2
BLOCK_23
340
0
 70
     0
280
     1
281
     0
  0
BLOCK_RECORD
  5
EC
330
1
100
AcDbSymbolTableRecord
100
AcDbBlockTableRecord
  2
BLOCK_24
340
0
 70
     0
280
     1
281
     0
  0
BLOCK_RECORD
  5
F4
330
1
100
AcDbSymbolTableRecord
100
AcDbBlockTableRecord
  2
BLOCK_25
340
0
 70
     0
280
     1
281
     0
  0
BLOCK_RECORD
  5
FD
330
1
100
AcDbSymbolTableRecord
100
AcDbBlockTableRecord
  2
BLOCK_26
340
0
 70
     0
280
     1
281
     0
  0
BLOCK_RECORD
  5
106
330
1
100
AcDbSymbolTableRecord
100
AcDbBlockTableRecord
  2
BLOCK_27
340
0
 70
     0
280
     1
281
     0
  0
BLOCK_RECORD
  5
10F
330
1
100
AcDbSymbolTableRecord
100
AcDbBlockTableRecord
  2
BLOCK_28
340
0
 70
     0
280
     1
281
     0
  0
BLOCK_RECORD
  5
118
330
1
100
AcDbSymbolTableRecord
100
AcDbBlockTableRecord
  2
BLOCK_29
340
0
 70
     0
280
     1
281
     0
  0
BLOCK_RECORD
  5
121
330
1
100
AcDbSymbolTableRecord
100
AcDbBlockTableRecord
  2
BLOCK_30
340
0
 70
     0
280
     1
281
     0
  0
BLOCK_RECORD
  5
12A
330
1
100
AcDbSymbolTableRecord
100
AcDbBlockTableRecord
  2
BLOCK_31
340
0
 70
     0
280
     1
281
     0
  0
BLOCK_RECORD
  5
133
330
1
100
AcDbSymbolTableRecord
100
AcDbBlockTableRecord
  2
BLOCK_32
340
0
 70
     0
280
     1
281
     0
  0
BLOCK_RECORD
  5
13C
330
1
100
AcDbSymbolTableRecord
100
AcDbBlockTableRecord
  2
BLOCK_33
340
0
 70
     0
280
     1
281
     0
  0
BLOCK_RECORD
  5
145
330
1
100
AcDbSymbolTableRecord
100
AcDbBlockTableRecord
  2
BLOCK_34
340
0
 70
     0
280
     1
281
     0
  0
BLOCK_RECORD
  5
14E
330
1
100
AcDbSymbolTableRecord
100
AcDbBlockTableRecord
  2
BLOCK_35
340
0
 70
     0
280
     1
281
     0
  0
BLOCK_RECORD
  5
157
330
1
100
AcDbSymbolTableRecord
100
AcDbBlockTableRecord
  2
BLOCK_36
340
0
 70
     0
280
     1
281
     0
  0
BLOCK_RECORD
  5
160
330
1
100
AcDbSymbolTableRecord
100
AcDbBlockTableRecord
  2
BLOCK_37
340
0
 70
     0
280
     1
281
     0
  0
BLOCK_RECORD
  5
169
330
1
100
AcDbSymbolTableRecord
100
AcDbBlockTableRecord
  2
BLOCK_38
340
0
 70
     0
280
     1
281
     0
  0
BLOCK_RECORD
  5
172
330
1
100
AcDbSymbolTableRecord
100
AcDbBlockTableRecord
  2
BLOCK_39
340
0
 70
     0
280
     1
281
     0
  0
BLOCK_RECORD
  5
17B
330
1
100
AcDbSymbolTableRecord
100
AcDbBlockTableRecord
  2
BLOCK_40
340
0
 70
     0
280
     1
281
     0
  0
BLOCK_RECORD
  5
184
330
1
100
AcDbSymbolTableRecord
100
AcDbBlockTableRecord
  2
BLOCK_41
340
0
 70
     0
280
     1
281
     0
  0
BLOCK_RECORD
  5
18D
330
1
100
AcDbSymbolTableRecord
100
AcDbBlockTableRecord
  2
BLOCK_42
340
0
 70
     0
280
     1
281
     0
  0
BLOCK_RECORD
  5
196
330
1
100
AcDbSymbolTableRecord
100
AcDbBlockTableRecord
  2
BLOCK_43
340
0
 70
     0
280
     1
281
     0
  0
BLOCK_RECORD
  5
19F
330
1
100
AcDbSymbolTableRecord
100
AcDbBlockTableRecord
  2
BLOCK_44
340
0
 70
     0
280
     1
281
     0
  0
BLOCK_RECORD
  5
1A8
330
1
100
AcDbSymbolTableRecord
100
AcDbBlockTableRecord
  2
BLOCK_45
340
0
 70
     0
280
     1
281
     0
  0
BLOCK_RECORD
  5
1B1
330
1
100
AcDbSymbolTableRecord
100
AcDbBlockTableRecord
  2
BLOCK_46
340
0
 70
     0
280
     1
281
     0
  0
BLOCK_RECORD
  5
1BA
330
1
100
AcDbSymbolTableRecord
100
AcDbBlockTableRecord
  2
BLOCK_47
340
0
 70
     0
280
     1
281
     0
  0
BLOCK_RECORD
  5
1C3
330
1
100
AcDbSymbolTableRecord
100
AcDbBlockTableRecord
  2
BLOCK_48
340
0
 70
     0
280
     1
281
     0
  0
BLOCK_RECORD
  5
1CC
330
1
100
AcDbSymbolTableRecord
100
AcDbBlockTableRecord
  2
BLOCK_49
340
0
 70
     0
280
     1
281
     0
  0
BLOCK_RECORD
  5
1D5
330
1
100
AcDbSymbolTableRecord
100
AcDbBlockTableRecord
  2
BLOCK_50
340
0
 70
     0
280
     1
281
     0
  0
BLOCK_RECORD
  5
1DE
330
1
100
AcDbSymbolTableRecord
100
AcDbBlockTableRecord
  2
BLOCK_51
340
0
 70
     0
280
     1
281
     0
  0
BLOCK_RECORD
  5
1E7
330
1
100
AcDbSymbolTableRecord
100
AcDbBlockTableRecord
  2
BLOCK_52
340
0
 70
     0
280
     1
281
     0
  0
BLOCK_RECORD
  5
1F0
330
1
100
AcDbSymbolTableRecord
100
AcDbBlockTableRecord
  2
BLOCK_53
340
0
 70
     0
280
     1
281
     0
  0
BLOCK_RECORD
  5
1F9
330
1
100
AcDbSymbolTableRecord
100
AcDbBlockTableRecord
  2
BLOCK_54
340
0
 70
     0
280
     1
281
     0
  0
BLOCK_RECORD
  5
202
330
1
100
AcDbSymbolTableRecord
100
AcDbBlockTableRecord
  2
BLOCK_55
340
0
 70
     0
280
     1
281
     0
  0
BLOCK_RECORD
  5
20B
330
1
100
AcDbSymbolTableRecord
100
AcDbBlockTableRecord
  2
BLOCK_56
340
0
 70
     0
280
     1
281
     0
  0
BLOCK_RECORD
  5
214
330
1
100
AcDbSymbolTableRecord
100
AcDbBlockTableRecord
  2
BLOCK_57
340
0
 70
     0
280
     1
281
     0
  0
BLOCK_RECORD
  5
21D
330
1
100
AcDbSymbolTableRecord
100
AcDbBlockTableRecord
  2
BLOCK_58
340
0
 70
     0
280
     1
281
     0
  0
BLOCK_RECORD
  5
226
330
1
100
AcDbSymbolTableRecord
100
AcDbBlockTableRecord
  2
BLOCK_59
340
0
 70
     0
280
     1
281
     0
  0
BLOCK_RECORD
  5
22F
330
1
100
AcDbSymbolTableRecord
100
AcDbBlockTableRecord
  2
BLOCK_60
340
0
 70
     0
280
     1
281
     0
  0
BLOCK_RECORD
  5
238
330
1
100
AcDbSymbolTableRecord
100
AcDbBlockTableRecord
  2
BLOCK_61
340
0
 70
     0
280
     1
281
     0
  0
BLOCK_RECORD
  5
241
330
1
100
AcDbSymbolTableRecord
100
AcDbBlockTableRecord
  2
BLOCK_62
340
0
 70
     0
280
     1
281
     0
  0
BLOCK_RECORD
  5
24A
330
1
100
AcDbSymbolTableRecord
100
AcDbBlockTableRecord
  2
BLOCK_63
340
0
 70
     0
280
     1
281
     0
  0
BLOCK_RECORD
  5
253
330
1
100
AcDbSymbolTableRecord
100
AcDbBlockTableRecord
  2
BLOCK_64
340
0
 70
     0
280
     1
281
     0
  0
BLOCK_RECORD
  5
25C
330
1
100
AcDbSymbolTableRecord
100
AcDbBlockTableRecord
  2
BLOCK_65
340
0
 70
     0
280
     1
281
     0
  0
BLOCK_RECORD
  5
265
330
1
100
AcDbSymbolTableRecord
100
AcDbBlockTableRecord
  2
BLOCK_66
340
0
 70
     0
280
     1
281
     0
  0
BLOCK_RECORD
  5
26E
330
1
100
AcDbSymbolTableRecord
100
AcDbBlockTableRecord
  2
BLOCK_67
340
0
 70
     0
280
     1
281
     0
  0
BLOCK_RECORD
  5
277
330
1
100
AcDbSymbolTableRecord
100
AcDbBlockTableRecord
  2
BLOCK_68
340
0
 70
     0
280
     1
281
     0
  0
BLOCK_RECORD
  5
280
330
1
100
AcDbSymbolTableRecord
100
AcDbBlockTableRecord
  2
BLOCK_69
340
0
 70
     0
280
     1
281
     0
  0
BLOCK_RECORD
  5
289
330
1
100
AcDbSymbolTableRecord
100
AcDbBlockTableRecord
  2
BLOCK_70
340
0
 70
     0
280
     1
281
     0
  0
BLOCK_RECORD
  5
292
330
1
100
AcDbSymbolTableRecord
100
AcDbBlockTableRecord
  2
BLOCK_71
340
0
 70
     0
280
     1
281
     0
  0
BLOCK_RECORD
  5
29B
330
1
100
AcDbSymbolTableRecord
100
AcDbBlockTableRecord
  2
BLOCK_72
340
0
 70
     0
280
     1
281
     0
  0
BLOCK_RECORD
  5
2A4
330
1
100
AcDbSymbolTableRecord
100
AcDbBlockTableRecord
  2
BLOCK_73
340
0
 70
     0
280
     1
281
     0
  0
BLOCK_RECORD
  5
2AD
330
1
100
AcDbSymbolTableRecord
100
AcDbBlockTableRecord
  2
BLOCK_74
340
0
 70
     0
280
     1
281
     0
  0
BLOCK_RECORD
  5
2B6
330
1
100
AcDbSymbolTableRecord
100
AcDbBlockTableRecord
  2
BLOCK_75
340
0
 70
     0
280
     1
281
     0
  0
BLOCK_RECORD
  5
2BF
330
1
100
AcDbSymbolTableRecord
100
AcDbBlockTableRecord
  2
BLOCK_76
340
0
 70
     0
280
     1
281
     0
  0
BLOCK_RECORD
  5
2C8
330
1
100
AcDbSymbolTableRecord
100
AcDbBlockTableRecord
  2
BLOCK_77
340
0
 70
     0
280
     1
281
     0
  0
BLOCK_RECORD
  5
2D1
330
1
100
AcDbSymbolTableRecord
100
AcDbBlockTableRecord
  2
BLOCK_78
340
0
 70
     0
280
     1
281
     0
  0
BLOCK_RECORD
  5
2DA
330
1
100
AcDbSymbolTableRecord
100
AcDbBlockTableRecord
  2
BLOCK_79
340
0
 70
     0
280
     1
281
     0
  0
BLOCK_RECORD
  5
2E3
330
1
100
AcDbSymbolTableRecord
100
AcDbBlockTableRecord
  2
BLOCK_80
340
0
 70
     0
280
     1
281
     0
  0
BLOCK_RECORD
  5
2EC
330
1
100
AcDbSymbolTableRecord
100
AcDbBlockTableRecord
  2
BLOCK_81
340
0
 70
     0
280
     1
281
     0
  0
BLOCK_RECORD
  5
2F5
330
1
100
AcDbSymbolTableRecord
100
AcDbBlockTableRecord
  2
BLOCK_82
340
0
 70
     0
280
     1
281
     0
  0
BLOCK_RECORD
  5
2FE
330
1
100
AcDbSymbolTableRecord
100
AcDbBlockTableRecord
  2
BLOCK_83
340
0
 70
     0
280
     1
281
     0
  0
BLOCK_RECORD
  5
307
330
1
100
AcDbSymbolTableRecord
100
AcDbBlockTableRecord
  2
BLOCK_84
340
0
 70
     0
280
     1
281
     0
  0
BLOCK_RECORD
  5
310
330
1
100
AcDbSymbolTableRecord
100
AcDbBlockTableRecord
  2
BLOCK_85
340
0
 70
     0
280
     1
281
     0
  0
BLOCK_RECORD
  5
319
330
1
100
AcDbSymbolTableRecord
100
AcDbBlockTableRecord
  2
BLOCK_86
340
0
 70
     0
280
     1
281
     0
  0
BLOCK_RECORD
  5
322
330
1
100
AcDbSymbolTableRecord
100
AcDbBlockTableRecord
  2
BLOCK_87
340
0
 70
     0
280
     1
281
     0
  0
BLOCK_RECORD
  5
32B
330
1
100
AcDbSymbolTableRecord
100
AcDbBlockTableRecord
  2
BLOCK_88
340
0
 70
     0
280
     1
281
     0
  0
BLOCK_RECORD
  5
334
330
1
100
AcDbSymbolTableRecord
100
AcDbBlockTableRecord
  2
BLOCK_89
340
0
 70
     0
280
     1
281
     0
  0
BLOCK_RECORD
  5
33D
330
1
100
AcDbSymbolTableRecord
100
AcDbBlockTableRecord
  2
BLOCK_90
340
0
 70
     0
280
     1
281
     0
  0
BLOCK_RECORD
  5
346
330
1
100
AcDbSymbolTableRecord
100
AcDbBlockTableRecord
  2
BLOCK_91
340
0
 70
     0
280
     1
281
     0
  0
BLOCK_RECORD
  5
34F
330
1
100
AcDbSymbolTableRecord
100
AcDbBlockTableRecord
  2
BLOCK_92
340
0
 70
     0
280
     1
281
     0
  0
BLOCK_RECORD
  5
358
330
1
100
AcDbSymbolTableRecord
100
AcDbBlockTableRecord
  2
BLOCK_93
340
0
 70
     0
280
     1
281
     0
  0
BLOCK_RECORD
  5
361
330
1
100
AcDbSymbolTableRecord
100
AcDbBlockTableRecord
  2
BLOCK_94
340
0
 70
     0
280
     1
281
     0
  0
BLOCK_RECORD
  5
36A
330
1
100
AcDbSymbolTableRecord
100
AcDbBlockTableRecord
  2
BLOCK_95
340
0
 70
     0
280
     1
281
     0
  0
BLOCK_RECORD
  5
373
330
1
100
AcDbSymbolTableRecord
100
AcDbBlockTableRecord
  2
BLOCK_96
340
0
 70
     0
280
     1
281
     0
  0
BLOCK_RECORD
  5
37C
330
1
100
AcDbSymbolTableRecord
100
AcDbBlockTableRecord
  2
BLOCK_97
340
0
 70
     0
280
     1
281
     0
  0
BLOCK_RECORD
  5
385
330
1
100
AcDbSymbolTableRecord
100
AcDbBlockTableRecord
  2
BLOCK_98
340
0
 70
     0
280
     1
281
     0
  0
BLOCK_RECORD
  5
38E
330
1
100
AcDbSymbolTableRecord
100
AcDbBlockTableRecord
  2
BLOCK_99
340
0
 70
     0
280
     1
281
     0
  0
BLOCK_RECORD
  5
397
330
1
100
AcDbSymbolTableRecord
100
AcDbBlockTableRecord
  2
BLOCK_100
340
0
 70
     0
280
     1
281
     0
  0
BLOCK_RECORD
  5
3A0
330
1
100
AcDbSymbolTableRecord
100
AcDbBlockTableRecord
  2
BLOCK_101
340
0
 70
     0
280
     1
281
     0
  0
BLOCK_RECORD
  5
3A9
330
1
100
AcDbSymbolTableRecord
100
AcDbBlockTableRecord
  2
BLOCK_102
340
0
 70
     0
280
     1
281
     0
  0
BLOCK_RECORD
  5
3B2
330
1
100
AcDbSymbolTableRecord
100
AcDbBlockTableRecord
  2
BLOCK_103
340
0
 70
     0
280
     1
281
     0
  0
BLOCK_RECORD
  5
3BB
330
1
100
AcDbSymbolTableRecord
100
AcDbBlockTableRecord
  2
BLOCK_104
340
0
 70
     0
280
     1
281
     0
  0
BLOCK_RECORD
  5
3C4
330
1
100
AcDbSymbolTableRecord
100
AcDbBlockTableRecord
  2
BLOCK_105
340
0
 70
     0
280
     1
281
     0
  0
BLOCK_RECORD
  5
3CD
330
1
100
AcDbSymbolTableRecord
100
AcDbBlockTableRecord
  2
BLOCK_106
340
0
 70
     0
280
     1
281
     0
  0
BLOCK_RECORD
  5
3D6
330
1
100
AcDbSymbolTableRecord
100
AcDbBlockTableRecord
  2
BLOCK_107
340
0
 70
     0
280
     1
281
     0
  0
BLOCK_RECORD
  5
3DF
330
1
100
AcDbSymbolTableRecord
100
AcDbBlockTableRecord
  2
BLOCK_108
340
0
 70
     0
280
     1
281
     0
  0
BLOCK_RECORD
  5
3E8
330
1
100
AcDbSymbolTableRecord
100
AcDbBlockTableRecord
  2
BLOCK_109
340
0
 70
     0
280
     1
281
     0
  0
BLOCK_RECORD
  5
3F1
330
1
100
AcDbSymbolTableRecord
100
AcDbBlockTableRecord
  2
BLOCK_110
340
0
 70
     0
280
     1
281
     0
  0
BLOCK_RECORD
  5
3FA
330
1
100
AcDbSymbolTableRecord
100
AcDbBlockTableRecord
  2
BLOCK_111
340
0
 70
     0
280
     1
281
     0
  0
BLOCK_RECORD
  5
403
330
1
100
AcDbSymbolTableRecord
100
AcDbBlockTableRecord
  2
BLOCK_112
340
0
 70
     0
280
     1
281
     0
  0
BLOCK_RECORD
  5
40D
330
1
100
AcDbSymbolTableRecord
100
AcDbBlockTableRecord
  2
BLOCK_113
340
0
 70
     0
280
     1
281
     0
  0
BLOCK_RECORD
  5
415
330
1
100
AcDbSymbolTableRecord
100
AcDbBlockTableRecord
  2
BLOCK_114
340
0
 70
     0
280
     1
281
     0
  0
BLOCK_RECORD
  5
41D
330
1
100
AcDbSymbolTableRecord
100
AcDbBlockTableRecord
  2
BLOCK_115
340
0
 70
     0
280
     1
281
     0
  0
BLOCK_RECORD
  5
425
330
1
100
AcDbSymbolTableRecord
100
AcDbBlockTableRecord
  2
BLOCK_116
340
0
 70
     0
280
     1
281
     0
  0
BLOCK_RECORD
  5
42D
330
1
100
AcDbSymbolTableRecord
100
AcDbBlockTableRecord
  2
BLOCK_117
340
0
 70
     0
280
     1
281
     0
  0
BLOCK_RECORD
  5
435
330
1
100
AcDbSymbolTableRecord
100
AcDbBlockTableRecord
  2
BLOCK_118
340
0
 70
     0
280
     1
281
     0
  0
BLOCK_RECORD
  5
43D
330
1
100
AcDbSymbolTableRecord
100
AcDbBlockTableRecord
  2
BLOCK_119
340
0
 70
     0
280
     1
281
     0
  0
BLOCK_RECORD
  5
445
330
1
100
AcDbSymbolTableRecord
100
AcDbBlockTableRecord
  2
BLOCK_120
340
0
 70
     0
280
     1
281
     0
  0
BLOCK_RECORD
  5
44D
330
1
100
AcDbSymbolTableRecord
100
AcDbBlockTableRecord
  2
BLOCK_121
340
0
 70
     0
280
     1
281
     0
  0
BLOCK_RECORD
  5
455
330
1
100
AcDbSymbolTableRecord
100
AcDbBlockTableRecord
  2
BLOCK_122
340
0
 70
     0
280
     1
281
     0
  0
BLOCK_RECORD
  5
45D
330
1
100
AcDbSymbolTableRecord
100
AcDbBlockTableRecord
  2
BLOCK_123
340
0
 70
     0
280
     1
281
     0
  0
BLOCK_RECORD
  5
465
330
1
100
AcDbSymbolTableRecord
100
AcDbBlockTableRecord
  2
BLOCK_124
340
0
 70
     0
280
     1
281
     0
  0
BLOCK_RECORD
  5
46D
330
1
100
AcDbSymbolTableRecord
100
AcDbBlockTableRecord
  2
BLOCK_125
340
0
 70
     0
280
     1
281
     0
  0
BLOCK_RECORD
  5
475
330
1
100
AcDbSymbolTableRecord
100
AcDbBlockTableRecord
  2
BLOCK_126
340
0
 70
     0
280
     1
281
     0
  0
BLOCK_RECORD
  5
47D
330
1
100
AcDbSymbolTableRecord
100
AcDbBlockTableRecord
  2
BLOCK_127
340
0
 70
     0
280
     1
281
     0
  0
BLOCK_RECORD
  5
485
330
1
100
AcDbSymbolTableRecord
100
AcDbBlockTableRecord
  2
BLOCK_128
340
0
 70
     0
280
     1
281
     0
  0
BLOCK_RECORD
  5
48D
330
1
100
AcDbSymbolTableRecord
100
AcDbBlockTableRecord
  2
BLOCK_129
340
0
 70
     0
280
     1
281
     0
  0
BLOCK_RECORD
  5
495
330
1
100
AcDbSymbolTableRecord
100
AcDbBlockTableRecord
  2
BLOCK_130
340
0
 70
     0
280
     1
281
     0
  0
BLOCK_RECORD
  5
49D
330
1
100
AcDbSymbolTableRecord
100
AcDbBlockTableRecord
  2
BLOCK_131
340
0
 70
     0
280
     1
281
     0
  0
BLOCK_RECORD
  5
4A5
330
1
100
AcDbSymbolTableRecord
100
AcDbBlockTableRecord
  2
BLOCK_132
340
0
 70
     0
280
     1
281
     0
  0
BLOCK_RECORD
  5
4AD
330
1
100
AcDbSymbolTableRecord
100
AcDbBlockTableRecord
  2
BLOCK_133
340
0
 70
     0
280
     1
281
     0
  0
BLOCK_RECORD
  5
4B5
330
1
100
AcDbSymbolTableRecord
100
AcDbBlockTableRecord
  2
BLOCK_134
340
0
 70
     0
280
     1
281
     0
  0
BLOCK_RECORD
  5
4BD
330
1
100
AcDbSymbolTableRecord
100
AcDbBlockTableRecord
  2
BLOCK_135
340
0
 70
     0
280
     1
281
     0
  0
BLOCK_RECORD
  5
4C5
330
1
100
AcDbSymbolTableRecord
100
AcDbBlockTableRecord
  2
BLOCK_136
340
0
 70
     0
280
     1
281
     0
  0
BLOCK_RECORD
  5
4CD
330
1
100
AcDbSymbolTableRecord
100
AcDbBlockTableRecord
  2
BLOCK_137
340
0
 70
     0
280
     1
281
     0
  0
BLOCK_RECORD
  5
4D5
330
1
100
AcDbSymbolTableRecord
100
AcDbBlockTableRecord
  2
BLOCK_138
340
0
 70
     0
280
     1
281
     0
  0
BLOCK_RECORD
  5
4DD
330
1
100
AcDbSymbolTableRecord
100
AcDbBlockTableRecord
  2
BLOCK_139
340
0
 70
     0
280
     1
281
     0
  0
BLOCK_RECORD
  5
4E5
330
1
100
AcDbSymbolTableRecord
100
AcDbBlockTableRecord
  2
BLOCK_140
340
0
 70
     0
280
     1
281
     0
  0
BLOCK_RECORD
  5
4ED
330
1
100
AcDbSymbolTableRecord
100
AcDbBlockTableRecord
  2
BLOCK_141
340
0
 70
     0
280
     1
281
     0
  0
BLOCK_RECORD
  5
4F5
330
1
100
AcDbSymbolTableRecord
100
AcDbBlockTableRecord
  2
BLOCK_142
340
0
 70
     0
280
     1
281
     0
  0
BLOCK_RECORD
  5
4FD
330
1
100
AcDbSymbolTableRecord
100
AcDbBlockTableRecord
  2
BLOCK_143
340
0
 70
     0
280
     1
281
     0
  0
BLOCK_RECORD
  5
505
330
1
100
AcDbSymbolTableRecord
100
AcDbBlockTableRecord
  2
BLOCK_144
340
0
 70
     0
280
     1
281
     0
  0
BLOCK_RECORD
  5
50D
330
1
100
AcDbSymbolTableRecord
100
AcDbBlockTableRecord
  2
BLOCK_145
340
0
 70
     0
280
     1
281
     0
  0
BLOCK_RECORD
  5
515
330
1
100
AcDbSymbolTableRecord
100
AcDbBlockTableRecord
  2
BLOCK_146
340
0
 70
     0
280
     1
281
     0
  0
BLOCK_RECORD
  5
51D
330
1
100
AcDbSymbolTableRecord
100
AcDbBlockTableRecord
  2
BLOCK_147
340
0
 70
     0
280
     1
281
     0
  0
BLOCK_RECORD
  5
525
330
1
100
AcDbSymbolTableRecord
100
AcDbBlockTableRecord
  2
BLOCK_148
340
0
 70
     0
280
     1
281
     0
  0
BLOCK_RECORD
  5
52D
330
1
100
AcDbSymbolTableRecord
100
AcDbBlockTableRecord
  2
BLOCK_149
340
0
 70
     0
280
     1
281
     0
  0
BLOCK_RECORD
  5
535
330
1
100
AcDbSymbolTableRecord
100
AcDbBlockTableRecord
  2
BLOCK_150
340
0
 70
     0
280
     1
281
     0
  0
BLOCK_RECORD
  5
53D
330
1
100
AcDbSymbolTableRecord
100
AcDbBlockTableRecord
  2
BLOCK_151
340
0
 70
     0
280
     1
281
     0
  0
BLOCK_RECORD
  5
545
330
1
100
AcDbSymbolTableRecord
100
AcDbBlockTableRecord
  2
BLOCK_152
340
0
 70
     0
280
     1
281
     0
  0
BLOCK_RECORD
  5
54D
330
1
100
AcDbSymbolTableRecord
100
AcDbBlockTableRecord
  2
BLOCK_153
340
0
 70
     0
280
     1
281
     0
  0
BLOCK_RECORD
  5
555
330
1
100
AcDbSymbolTableRecord
100
AcDbBlockTableRecord
  2
BLOCK_154
340
0
 70
     0
280
     1
281
     0
  0
BLOCK_RECORD
  5
55D
330
1
100
AcDbSymbolTableRecord
100
AcDbBlockTableRecord
  2
BLOCK_155
340
0
 70
     0
280
     1
281
     0
  0
BLOCK_RECORD
  5
565
330
1
100
AcDbSymbolTableRecord
100
AcDbBlockTableRecord
  2
BLOCK_156
340
0
 70
     0
280
     1
281
     0
  0
BLOCK_RECORD
  5
56D
330
1
100
AcDbSymbolTableRecord
100
AcDbBlockTableRecord
  2
BLOCK_157
340
0
 70
     0
280
     1
281
     0
  0
BLOCK_RECORD
  5
575
330
1
100
AcDbSymbolTableRecord
100
AcDbBlockTableRecord
  2
BLOCK_158
340
0
 70
     0
280
     1
281
     0
  0
BLOCK_RECORD
  5
57D
330
1
100
AcDbSymbolTableRecord
100
AcDbBlockTableRecord
  2
BLOCK_159
340
0
 70
     0
280
     1
281
     0
  0
BLOCK_RECORD
  5
585
330
1
100
AcDbSymbolTableRecord
100
AcDbBlockTableRecord
  2
BLOCK_160
340
0
 70
     0
280
     1
281
     0
  0
BLOCK_RECORD
  5
58D
330
1
100
AcDbSymbolTableRecord
100
AcDbBlockTableRecord
  2
BLOCK_161
340
0
 70
     0
280
     1
281
     0
  0
BLOCK_RECORD
  5
595
330
1
100
AcDbSymbolTableRecord
100
AcDbBlockTableRecord
  2
BLOCK_162
340
0
 70
     0
280
     1
281
     0
  0
BLOCK_RECORD
  5
59D
330
1
100
AcDbSymbolTableRecord
100
AcDbBlockTableRecord
  2
BLOCK_163
340
0
 70
     0
280
     1
281
     0
  0
BLOCK_RECORD
  5
5A5
330
1
100
AcDbSymbolTableRecord
100
AcDbBlockTableRecord
  2
BLOCK_164
340
0
 70
     0
280
     1
281
     0
  0
BLOCK_RECORD
  5
5AD
330
1
100
AcDbSymbolTableRecord
100
AcDbBlockTableRecord
  2
BLOCK_165
340
0
 70
     0
280
     1
281
     0
  0
BLOCK_RECORD
  5
5B5
330
1
100
AcDbSymbolTableRecord
100
AcDbBlockTableRecord
  2
BLOCK_166
340
0
 70
     0
280
     1
281
     0
  0
BLOCK_RECORD
  5
5BD
330
1
100
AcDbSymbolTableRecord
100
AcDbBlockTableRecord
  2
BLOCK_167
340
0
 70
     0
280
     1
281
     0
  0
BLOCK_RECORD
  5
5C5
330
1
100
AcDbSymbolTableRecord
100
AcDbBlockTableRecord
  2
BLOCK_168
340
0
 70
     0
280
     1
281
     0
  0
BLOCK_RECORD
  5
5CD
330
1
100
AcDbSymbolTableRecord
100
AcDbBlockTableRecord
  2
BLOCK_169
340
0
 70
     0
280
     1
281
     0
  0
BLOCK_RECORD
  5
5D5
330
1
100
AcDbSymbolTableRecord
100
AcDbBlockTableRecord
  2
BLOCK_170
340
0
 70
     0
280
     1
281
     0
  0
BLOCK_RECORD
  5
5DD
330
1
100
AcDbSymbolTableRecord
100
AcDbBlockTableRecord
  2
BLOCK_171
340
0
 70
     0
280
     1
281
     0
  0
BLOCK_RECORD
  5
5E5
330
1
100
AcDbSymbolTableRecord
100
AcDbBlockTableRecord
  2
BLOCK_172
340
0
 70
     0
280
     1
281
     0
  0
BLOCK_RECORD
  5
5ED
330
1
100
AcDbSymbolTableRecord
100
AcDbBlockTableRecord
  2
BLOCK_173
340
0
 70
     0
280
     1
281
     0
  0
BLOCK_RECORD
  5
5F5
330
1
100
AcDbSymbolTableRecord
100
AcDbBlockTableRecord
  2
BLOCK_174
340
0
 70
     0
280
     1
281
     0
  0
BLOCK_RECORD
  5
5FD
330
1
100
AcDbSymbolTableRecord
100
AcDbBlockTableRecord
  2
BLOCK_175
340
0
 70
     0
280
     1
281
     0
  0
BLOCK_RECORD
  5
605
330
1
100
AcDbSymbolTableRecord
100
AcDbBlockTableRecord
  2
BLOCK_176
340
0
 70
     0
280
     1
281
     0
  0
BLOCK_RECORD
  5
60D
330
1
100
AcDbSymbolTableRecord
100
AcDbBlockTableRecord
  2
BLOCK_177
340
0
 70
     0
280
     1
281
     0
  0
BLOCK_RECORD
  5
615
330
1
100
AcDbSymbolTableRecord
100
AcDbBlockTableRecord
  2
BLOCK_178
340
0
 70
     0
280
     1
281
     0
  0
BLOCK_RECORD
  5
61D
330
1
100
AcDbSymbolTableRecord
100
AcDbBlockTableRecord
  2
BLOCK_179
340
0
 70
     0
280
     1
281
     0
  0
BLOCK_RECORD
  5
625
330
1
100
AcDbSymbolTableRecord
100
AcDbBlockTableRecord
  2
BLOCK_180
340
0
 70
     0
280
     1
281
     0
  0
BLOCK_RECORD
  5
62D
330
1
100
AcDbSymbolTableRecord
100
AcDbBlockTableRecord
  2
BLOCK_181
340
0
 70
     0
280
     1
281
     0
  0
BLOCK_RECORD
  5
635
330
1
100
AcDbSymbolTableRecord
100
AcDbBlockTableRecord
  2
BLOCK_182
340
0
 70
     0
280
     1
281
     0
  0
BLOCK_RECORD
  5
63D
330
1
100
AcDbSymbolTableRecord
100
AcDbBlockTableRecord
  2
BLOCK_183
340
0
 70
     0
280
     1
281
     0
  0
BLOCK_RECORD
  5
645
330
1
100
AcDbSymbolTableRecord
100
AcDbBlockTableRecord
  2
BLOCK_184
340
0
 70
     0
280
     1
281
     0
  0
BLOCK_RECORD
  5
64D
330
1
100
AcDbSymbolTableRecord
100
AcDbBlockTableRecord
  2
BLOCK_185
340
0
 70
     0
280
     1
281
     0
  0
BLOCK_RECORD
  5
655
330
1
100
AcDbSymbolTableRecord
100
AcDbBlockTableRecord
  2
BLOCK_186
340
0
 70
     0
280
     1
281
     0
  0
BLOCK_RECORD
  5
65D
330
1
100
AcDbSymbolTableRecord
100
AcDbBlockTableRecord
  2
BLOCK_187
340
0
 70
     0
280
     1
281
     0
  0
BLOCK_RECORD
  5
665
330
1
100
AcDbSymbolTableRecord
100
AcDbBlockTableRecord
  2
BLOCK_188
340
0
 70
     0
280
     1
281
     0
  0
BLOCK_RECORD
  5
66D
330
1
100
AcDbSymbolTableRecord
100
AcDbBlockTableRecord
  2
BLOCK_189
340
0
 70
     0
280
     1
281
     0
  0
BLOCK_RECORD
  5
675
330
1
100
AcDbSymbolTableRecord
100
AcDbBlockTableRecord
  2
BLOCK_190
340
0
 70
     0
280
     1
281
     0
  0
BLOCK_RECORD
  5
67D
330
1
100
AcDbSymbolTableRecord
100
AcDbBlockTableRecord
  2
BLOCK_191
340
0
 70
     0
280
     1
281
     0
  0
BLOCK_RECORD
  5
685
330
1
100
AcDbSymbolTableRecord
100
AcDbBlockTableRecord
  2
BLOCK_192
340
0
 70
     0
280
     1
281
     0
  0
BLOCK_RECORD
  5
68D
330
1
100
AcDbSymbolTableRecord
100
AcDbBlockTableRecord
  2
BLOCK_193
340
0
 70
     0
280
     1
281
     0
  0
BLOCK_RECORD
  5
695
330
1
100
AcDbSymbolTableRecord
100
AcDbBlockTableRecord
  2
BLOCK_194
340
0
 70
     0
280
     1
281
     0
  0
BLOCK_RECORD
  5
69D
330
1
100
AcDbSymbolTableRecord
100
AcDbBlockTableRecord
  2
BLOCK_195
340
0
 70
     0
280
     1
281
     0
  0
BLOCK_RECORD
  5
6A5
330
1
100
AcDbSymbolTableRecord
100
AcDbBlockTableRecord
  2
BLOCK_196
340
0
 70
     0
280
     1
281
     0
  0
BLOCK_RECORD
  5
6AD
330
1
100
AcDbSymbolTableRecord
100
AcDbBlockTableRecord
  2
BLOCK_197
340
0
 70
     0
280
     1
281
     0
  0
BLOCK_RECORD
  5
6B5
330
1
100
AcDbSymbolTableRecord
100
AcDbBlockTableRecord
  2
BLOCK_198
340
0
 70
     0
280
     1
281
     0
  0
BLOCK_RECORD
  5
6BD
330
1
100
AcDbSymbolTableRecord
100
AcDbBlockTableRecord
  2
BLOCK_199
340
0
 70
     0
280
     1
281
     0
  0
BLOCK_RECORD
  5
6C5
330
1
100
AcDbSymbolTableRecord
100
AcDbBlockTableRecord
  2
BLOCK_200
340
0
 70
     0
280
     1
281
     0
  0
BLOCK_RECORD
  5
6CD
330
1
100
AcDbSymbolTableRecord
100
AcDbBlockTableRecord
  2
BLOCK_201
340
0
 70
     0
280
     1
281
     0
  0
BLOCK_RECORD
  5
6D5
330
1
100
AcDbSymbolTableRecord
100
AcDbBlockTableRecord
  2
BLOCK_202
340
0
 70
     0
280
     1
281
     0
  0
BLOCK_RECORD
  5
6DD
330
1
100
AcDbSymbolTableRecord
100
AcDbBlockTableRecord
  2
BLOCK_203
340
0
 70
     0
280
     1
281
     0
  0
BLOCK_RECORD
  5
6E5
330
1
100
AcDbSymbolTableRecord
100
AcDbBlockTableRecord
  2
BLOCK_204
340
0
 70
     0
280
     1
281
     0
  0
BLOCK_RECORD
  5
6ED
330
1
100
AcDbSymbolTableRecord
100
AcDbBlockTableRecord
  2
BLOCK_205
340
0
 70
     0
280
     1
281
     0
  0
BLOCK_RECORD
  5
6F5
330
1
100
AcDbSymbolTableRecord
100
AcDbBlockTableRecord
  2
BLOCK_206
340
0
 70
     0
280
     1
281
     0
  0
BLOCK_RECORD
  5
6FD
330
1
100
AcDbSymbolTableRecord
100
AcDbBlockTableRecord
  2
BLOCK_207
340
0
 70
     0
280
     1
281
     0
  0
BLOCK_RECORD
  5
705
330
1
100
AcDbSymbolTableRecord
100
AcDbBlockTableRecord
  2
BLOCK_208
340
0
 70
     0
280
     1
281
     0
  0
BLOCK_RECORD
  5
70D
330
1
100
AcDbSymbolTableRecord
100
AcDbBlockTableRecord
  2
BLOCK_209
340
0
 70
     0
280
     1
281
     0
  0
BLOCK_RECORD
  5
715
330
1
100
AcDbSymbolTableRecord
100
AcDbBlockTableRecord
  2
BLOCK_210
340
0
 70
     0
280
     1
281
     0
  0
BLOCK_RECORD
  5
71D
330
1
100
AcDbSymbolTableRecord
100
AcDbBlockTableRecord
  2
BLOCK_211
340
0
 70
     0
280
     1
281
     0
  0
BLOCK_RECORD
  5
725
330
1
100
AcDbSymbolTableRecord
100
AcDbBlockTableRecord
  2
BLOCK_212
340
0
 70
     0
280
     1
281
     0
  0
BLOCK_RECORD
  5
72D
330
1
100
AcDbSymbolTableRecord
100
AcDbBlockTableRecord
  2
BLOCK_213
340
0
 70
     0
280
     1
281
     0
  0
BLOCK_RECORD
  5
735
330
1
100
AcDbSymbolTableRecord
100
AcDbBlockTableRecord
  2
BLOCK_214
340
0
 70
     0
280
     1
281
     0
  0
BLOCK_RECORD
  5
73D
330
1
100
AcDbSymbolTableRecord
100
AcDbBlockTableRecord
  2
BLOCK_215
340
0
 70
     0
280
     1
281
     0
  0
ENDTAB
  0
ENDSEC
  0
SECTION
  2
BLOCKS
  0
BLOCK
  5
20
330
1F
100
AcDbEntity
  8
0
100
AcDbBlockBegin
  2
*MODEL_SPACE
 70
     0
 10
0.0
 20
0.0
 30
0.0
  3
*MODEL_SPACE
  1

  0
ENDBLK
  5
21
330
1F
100
AcDbEntity
  8
0
100
AcDbBlockEnd
  0
BLOCK
  5
1C
330
1B
100
AcDbEntity
 67
     1
  8
0
100
AcDbBlockBegin
  2
*PAPER_SPACE
 70
     0
 10
0.0
 20
0.0
 30
0.0
  3
*PAPER_SPACE
  1

  0
ENDBLK
  5
1D
330
1B
100
AcDbEntity
 67
     1
  8
0
100
AcDbBlockEnd
  0
BLOCK
  5
3E
330
3C
100
AcDbEntity
  8
0
100
AcDbBlockBegin
  2
BLOCK_2
 70
     0
 10
0.0
 20
0.0
 30
0.0
  3
BLOCK_2
  1

  0
LWPOLYLINE
  5
40
330
3C
100
AcDbEntity
  8
CUTLINE
 62
     7
100
AcDbPolyline
 90
        2
 70
     0
 43
0.0
 10
171.7359428824132
 20
-190.3525498656063
 10
197.9582871683924
 20
-177.241549977391
  0
ENDBLK
  5
3F
330
3C
100
AcDbEntity
  8
0
100
AcDbBlockEnd
  0
BLOCK
  5
46
330
44
100
AcDbEntity
  8
0
100
AcDbBlockBegin
  2
BLOCK_3
 70
     0
 10
0.0
 20
0.0
 30
0.0
  3
BLOCK_3
  1

  0
LWPOLYLINE
  5
48
330
44
100
AcDbEntity
  8
CUTLINE
 62
     7
100
AcDbPolyline
 90
        2
 70
     0
 43
0.0
 10
173.3782199002318
 20
-219.623459146483
 10
171.7359428824132
 20
-190.3525498656063
  0
ENDBLK
  5
47
330
44
100
AcDbEntity
  8
0
100
AcDbBlockEnd
  0
BLOCK
  5
4E
330
4C
100
AcDbEntity
  8
0
100
AcDbBlockBegin
  2
BLOCK_4
 70
     0
 10
0.0
 20
0.0
 30
0.0
  3
BLOCK_4
  1

  0
LWPOLYLINE
  5
50
330
4C
100
AcDbEntity
  8
CUTLINE
 62
     7
100
AcDbPolyline
 90
        2
 70
     0
 43
0.0
 10
144.1142008103255
 20
-217.8709390731364
 10
173.3782199002318
 20
-219.623459146483
  0
ENDBLK
  5
4F
330
4C
100
AcDbEntity
  8
0
100
AcDbBlockEnd
  0
BLOCK
  5
56
330
54
100
AcDbEntity
  8
0
100
AcDbBlockBegin
  2
BLOCK_5
 70
     0
 10
0.0
 20
0.0
 30
0.0
  3
BLOCK_5
  1

  0
LWPOLYLINE
  5
58
330
54
100
AcDbEntity
  8
CUTLINE
 62
     7
100
AcDbPolyline
 90
        2
 70
     0
 43
0.0
 10
130.9046711912322
 20
-244.043673984128
 10
144.1142008103255
 20
-217.8709390731364
  0
ENDBLK
  5
57
330
54
100
AcDbEntity
  8
0
100
AcDbBlockEnd
  0
BLOCK
  5
5E
330
5C
100
AcDbEntity
  8
0
100
AcDbBlockBegin
  2
BLOCK_6
 70
     0
 10
0.0
 20
0.0
 30
0.0
  3
BLOCK_6
  1

  0
LWPOLYLINE
  5
60
330
5C
100
AcDbEntity
  8
CUTLINE
 62
     7
100
AcDbPolyline
 90
        2
 70
     0
 43
0.0
 10
81.91196829549424
 20
-243.9640922784187
 10
106.4348469785995
 20
-227.8985785020531
  0
ENDBLK
  5
5F
330
5C
100
AcDbEntity
  8
0
100
AcDbBlockEnd
  0
BLOCK
  5
66
330
64
100
AcDbEntity
  8
0
100
AcDbBlockBegin
  2
BLOCK_7
 70
     0
 10
0.0
 20
0.0
 30
0.0
  3
BLOCK_7
  1

  0
LWPOLYLINE
  5
68
330
64
100
AcDbEntity
  8
CUTLINE
 62
     7
100
AcDbPolyline
 90
        2
 70
     0
 43
0.0
 10
106.4348469785995
 20
-227.8985785020531
 10
130.9046711912322
 20
-244.043673984128
  0
ENDBLK
  5
67
330
64
100
AcDbEntity
  8
0
100
AcDbBlockEnd
  0
BLOCK
  5
6E
330
6C
100
AcDbEntity
  8
0
100
AcDbBlockBegin
  2
BLOCK_8
 70
     0
 10
0.0
 20
0.0
 30
0.0
  3
BLOCK_8
  1

  0
LWPOLYLINE
  5
70
330
6C
100
AcDbEntity
  8
CUTLINE
 62
     7
100
AcDbPolyline
 90
        2
 70
     0
 43
0.0
 10
68.78804929920922
 20
-217.7486381834101
 10
81.91196829549424
 20
-243.9640922784187
  0
ENDBLK
  5
6F
330
6C
100
AcDbEntity
  8
0
100
AcDbBlockEnd
  0
BLOCK
  5
76
330
74
100
AcDbEntity
  8
0
100
AcDbBlockBegin
  2
BLOCK_9
 70
     0
 10
0.0
 20
0.0
 30
0.0
  3
BLOCK_9
  1

  0
LWPOLYLINE
  5
78
330
74
100
AcDbEntity
  8
CUTLINE
 62
     7
100
AcDbPolyline
 90
        2
 70
     0
 43
0.0
 10
39.51800129220383
 20
-219.4053846022667
 10
68.78804929920922
 20
-217.7486381834101
  0
ENDBLK
  5
77
330
74
100
AcDbEntity
  8
0
100
AcDbBlockEnd
  0
BLOCK
  5
7E
330
7C
100
AcDbEntity
  8
0
100
AcDbBlockBegin
  2
BLOCK_10
 70
     0
 10
0.0
 20
0.0
 30
0.0
  3
BLOCK_10
  1

  0
LWPOLYLINE
  5
80
330
7C
100
AcDbEntity
  8
CUTLINE
 62
     7
100
AcDbPolyline
 90
        2
 70
     0
 43
0.0
 10
41.2555352001896
 20
-190.1399874741664
 10
39.51800129220383
 20
-219.4053846022667
  0
ENDBLK
  5
7F
330
7C
100
AcDbEntity
  8
0
100
AcDbBlockEnd
  0
BLOCK
  5
86
330
84
100
AcDbEntity
  8
0
100
AcDbBlockBegin
  2
BLOCK_11
 70
     0
 10
0.0
 20
0.0
 30
0.0
  3
BLOCK_11
  1

  0
LWPOLYLINE
  5
88
330
84
100
AcDbEntity
  8
CUTLINE
 62
     7
100
AcDbPolyline
 90
        2
 70
     0
 43
0.0
 10
15.07591009822755
 20
-176.944238237014
 10
41.2555352001896
 20
-190.1399874741664
  0
ENDBLK
  5
87
330
84
100
AcDbEntity
  8
0
100
AcDbBlockEnd
  0
BLOCK
  5
8E
330
8C
100
AcDbEntity
  8
0
100
AcDbBlockBegin
  2
BLOCK_12
 70
     0
 10
0.0
 20
0.0
 30
0.0
  3
BLOCK_12
  1

  0
LWPOLYLINE
  5
90
330
8C
100
AcDbEntity
  8
CUTLINE
 62
     7
100
AcDbPolyline
 90
        2
 70
     0
 43
0.0
 10
181.9055202453222
 20
-152.5584743542215
 10
198.0140977152534
 20
-128.0633286897724
  0
ENDBLK
  5
8F
330
8C
100
AcDbEntity
  8
0
100
AcDbBlockEnd
  0
BLOCK
  5
96
330
94
100
AcDbEntity
  8
0
100
AcDbBlockBegin
  2
BLOCK_13
 70
     0
 10
0.0
 20
0.0
 30
0.0
  3
BLOCK_13
  1

  0
LWPOLYLINE
  5
98
330
94
100
AcDbEntity
  8
CUTLINE
 62
     7
100
AcDbPolyline
 90
        2
 70
     0
 43
0.0
 10
198.0140977152534
 20
-128.0633286897724
 10
171.8213812504474
 20
-114.8941066878563
  0
ENDBLK
  5
97
330
94
100
AcDbEntity
  8
0
100
AcDbBlockEnd
  0
BLOCK
  5
9E
330
9C
100
AcDbEntity
  8
0
100
AcDbBlockBegin
  2
BLOCK_14
 70
     0
 10
0.0
 20
0.0
 30
0.0
  3
BLOCK_14
  1

  0
LWPOLYLINE
  5
A0
330
9C
100
AcDbEntity
  8
CUTLINE
 62
     7
100
AcDbPolyline
 90
        2
 70
     0
 43
0.0
 10
171.8213812504474
 20
-114.8941066878563
 10
173.5284260633886
 20
-85.62715926678766
  0
ENDBLK
  5
9F
330
9C
100
AcDbEntity
  8
0
100
AcDbBlockEnd
  0
BLOCK
  5
A6
330
A4
100
AcDbEntity
  8
0
100
AcDbBlockBegin
  2
BLOCK_15
 70
     0
 10
0.0
 20
0.0
 30
0.0
  3
BLOCK_15
  1

  0
LWPOLYLINE
  5
A8
330
A4
100
AcDbEntity
  8
CUTLINE
 62
     7
100
AcDbPolyline
 90
        2
 70
     0
 43
0.0
 10
173.5284260633886
 20
-85.62715926678766
 10
144.2602728589001
 20
-87.31370576159172
  0
ENDBLK
  5
A7
330
A4
100
AcDbEntity
  8
0
100
AcDbBlockEnd
  0
BLOCK
  5
AE
330
AC
100
AcDbEntity
  8
0
100
AcDbBlockBegin
  2
BLOCK_16
 70
     0
 10
0.0
 20
0.0
 30
0.0
  3
BLOCK_16
  1

  0
LWPOLYLINE
  5
B0
330
AC
100
AcDbEntity
  8
CUTLINE
 62
     7
100
AcDbPolyline
 90
        2
 70
     0
 43
0.0
 10
144.2602728589001
 20
-87.31370576159172
 10
131.1099988821531
 20
-61.11134302942703
  0
ENDBLK
  5
AF
330
AC
100
AcDbEntity
  8
0
100
AcDbBlockEnd
  0
BLOCK
  5
B6
330
B4
100
AcDbEntity
  8
0
100
AcDbBlockBegin
  2
BLOCK_17
 70
     0
 10
0.0
 20
0.0
 30
0.0
  3
BLOCK_17
  1

  0
LWPOLYLINE
  5
B8
330
B4
100
AcDbEntity
  8
CUTLINE
 62
     7
100
AcDbPolyline
 90
        2
 70
     0
 43
0.0
 10
131.1099988821531
 20
-61.11134302942703
 10
106.6036566573769
 20
-77.20235051238344
  0
ENDBLK
  5
B7
330
B4
100
AcDbEntity
  8
0
100
AcDbBlockEnd
  0
BLOCK
  5
BE
330
BC
100
AcDbEntity
  8
0
100
AcDbBlockBegin
  2
BLOCK_18
 70
     0
 10
0.0
 20
0.0
 30
0.0
  3
BLOCK_18
  1

  0
LWPOLYLINE
  5
C0
330
BC
100
AcDbEntity
  8
CUTLINE
 62
     7
100
AcDbPolyline
 90
        2
 70
     0
 43
0.0
 10
106.6036566573769
 20
-77.20235051238344
 10
82.11677922209233
 20
-61.08171520825388
  0
ENDBLK
  5
BF
330
BC
100
AcDbEntity
  8
0
100
AcDbBlockEnd
  0
BLOCK
  5
C6
330
C4
100
AcDbEntity
  8
0
100
AcDbBlockBegin
  2
BLOCK_19
 70
     0
 10
0.0
 20
0.0
 30
0.0
  3
BLOCK_19
  1

  0
LWPOLYLINE
  5
C8
330
C4
100
AcDbEntity
  8
CUTLINE
 62
     7
100
AcDbPolyline
 90
        2
 70
     0
 43
0.0
 10
82.11677922209233
 20
-61.08171520825388
 10
68.93446585733236
 20
-87.26736922731509
  0
ENDBLK
  5
C7
330
C4
100
AcDbEntity
  8
0
100
AcDbBlockEnd
  0
BLOCK
  5
CE
330
CC
100
AcDbEntity
  8
0
100
AcDbBlockBegin
  2
BLOCK_20
 70
     0
 10
0.0
 20
0.0
 30
0.0
  3
BLOCK_20
  1

  0
LWPOLYLINE
  5
D0
330
CC
100
AcDbEntity
  8
CUTLINE
 62
     7
100
AcDbPolyline
 90
        2
 70
     0
 43
0.0
 10
68.93446585733236
 20
-87.26736922731509
 10
39.66786294581221
 20
-85.54516599423871
  0
ENDBLK
  5
CF
330
CC
100
AcDbEntity
  8
0
100
AcDbBlockEnd
  0
BLOCK
  5
D6
330
D4
100
AcDbEntity
  8
0
100
AcDbBlockBegin
  2
BLOCK_21
 70
     0
 10
0.0
 20
0.0
 30
0.0
  3
BLOCK_21
  1

  0
LWPOLYLINE
  5
D8
330
D4
100
AcDbEntity
  8
CUTLINE
 62
     7
100
AcDbPolyline
 90
        2
 70
     0
 43
0.0
 10
39.66786294581221
 20
-85.54516599423871
 10
41.33976778480395
 20
-114.8143527273728
  0
ENDBLK
  5
D7
330
D4
100
AcDbEntity
  8
0
100
AcDbBlockEnd
  0
BLOCK
  5
DE
330
DC
100
AcDbEntity
  8
0
100
AcDbBlockBegin
  2
BLOCK_22
 70
     0
 10
0.0
 20
0.0
 30
0.0
  3
BLOCK_22
  1

  0
LWPOLYLINE
  5
E0
330
DC
100
AcDbEntity
  8
CUTLINE
 62
     7
100
AcDbPolyline
 90
        2
 70
     0
 43
0.0
 10
41.33976778480395
 20
-114.8143527273728
 10
15.13103162599155
 20
-127.9511908317275
  0
ENDBLK
  5
DF
330
DC
100
AcDbEntity
  8
0
100
AcDbBlockEnd
  0
BLOCK
  5
E6
330
E4
100
AcDbEntity
  8
0
100
AcDbBlockBegin
  2
BLOCK_23
 70
     0
 10
0.0
 20
0.0
 30
0.0
  3
BLOCK_23
  1

  0
LWPOLYLINE
  5
E8
330
E4
100
AcDbEntity
  8
CUTLINE
 62
     7
100
AcDbPolyline
 90
        2
 70
     0
 43
0.0
 10
31.20894774610402
 20
-152.4658012856683
 10
15.07591009822755
 20
-176.944238237014
  0
ENDBLK
  5
E7
330
E4
100
AcDbEntity
  8
0
100
AcDbBlockEnd
  0
BLOCK
  5
EE
330
EC
100
AcDbEntity
  8
0
100
AcDbBlockBegin
  2
BLOCK_24
 70
     0
 10
0.0
 20
0.0
 30
0.0
  3
BLOCK_24
  1

  0
LWPOLYLINE
  5
F0
330
EC
100
AcDbEntity
  8
CUTLINE
 62
     7
100
AcDbPolyline
 90
        2
 70
     0
 43
0.0
 10
15.13103162599155
 20
-127.9511908317275
 10
31.20894774610402
 20
-152.4658012856683
  0
ENDBLK
  5
EF
330
EC
100
AcDbEntity
  8
0
100
AcDbBlockEnd
  0
BLOCK
  5
F6
330
F4
100
AcDbEntity
  8
0
100
AcDbBlockBegin
  2
BLOCK_25
 70
     0
 10
0.0
 20
0.0
 30
0.0
  3
BLOCK_25
  1

  0
LWPOLYLINE
  5
F8
330
F4
100
AcDbEntity
  8
CUTLINE
 62
     7
100
AcDbPolyline
 90
        2
 70
     0
 43
0.0
 10
198.008585562477
 20
-177.055859330736
 10
181.9055202453222
 20
-152.5584743542215
  0
ENDBLK
  5
F7
330
F4
100
AcDbEntity
  8
0
100
AcDbBlockEnd
  0
BLOCK
  5
FF
330
FD
100
AcDbEntity
  8
0
100
AcDbBlockBegin
  2
BLOCK_26
 70
     0
 10
0.0
 20
0.0
 30
0.0
  3
BLOCK_26
  1

  0
LWPOLYLINE
  5
101
330
FD
100
AcDbEntity
  8
VALLEYLINE
  6
AI-LINETYPE-1
 62
     7
100
AcDbPolyline
 90
        2
 70
     0
 43
0.0
 10
92.35611976857763
 20
-205.2243380563328
 10
84.49682343807719
 20
-234.3753580143228
  0
ENDBLK
  5
100
330
FD
100
AcDbEntity
  8
0
100
AcDbBlockEnd
  0
BLOCK
  5
108
330
106
100
AcDbEntity
  8
0
100
AcDbBlockBegin
  2
BLOCK_27
 70
     0
 10
0.0
 20
0.0
 30
0.0
  3
BLOCK_27
  1

  0
LWPOLYLINE
  5
10A
330
106
100
AcDbEntity
  8
VALLEYLINE
  6
AI-LINETYPE-2
 62
     7
100
AcDbPolyline
 90
        2
 70
     0
 43
0.0
 10
106.4865234108784
 20
-195.967021977918
 10
92.35611976857763
 20
-205.2243380563328
  0
ENDBLK
  5
109
330
106
100
AcDbEntity
  8
0
100
AcDbBlockEnd
  0
BLOCK
  5
111
330
10F
100
AcDbEntity
  8
0
100
AcDbBlockBegin
  2
BLOCK_28
 70
     0
 10
0.0
 20
0.0
 30
0.0
  3
BLOCK_28
  1

  0
LWPOLYLINE
  5
113
330
10F
100
AcDbEntity
  8
VALLEYLINE
  6
AI-LINETYPE-3
 62
     7
100
AcDbPolyline
 90
        2
 70
     0
 43
0.0
 10
128.3501328889194
 20
-234.4473605099646
 10
120.5866102129089
 20
-205.2708468453837
  0
ENDBLK
  5
112
330
10F
100
AcDbEntity
  8
0
100
AcDbBlockEnd
  0
BLOCK
  5
11A
330
118
100
AcDbEntity
  8
0
100
AcDbBlockBegin
  2
BLOCK_29
 70
     0
 10
0.0
 20
0.0
 30
0.0
  3
BLOCK_29
  1

  0
LWPOLYLINE
  5
11C
330
118
100
AcDbEntity
  8
VALLEYLINE
  6
AI-LINETYPE-4
 62
     7
100
AcDbPolyline
 90
        2
 70
     0
 43
0.0
 10
92.35611976857763
 20
-205.2243380563328
 10
84.79447968800277
 20
-190.1189723917064
  0
ENDBLK
  5
11B
330
118
100
AcDbEntity
  8
0
100
AcDbBlockEnd
  0
BLOCK
  5
123
330
121
100
AcDbEntity
  8
0
100
AcDbBlockBegin
  2
BLOCK_30
 70
     0
 10
0.0
 20
0.0
 30
0.0
  3
BLOCK_30
  1

  0
LWPOLYLINE
  5
125
330
121
100
AcDbEntity
  8
VALLEYLINE
  6
AI-LINETYPE-5
 62
     7
100
AcDbPolyline
 90
        2
 70
     0
 43
0.0
 10
67.92832572086514
 20
-191.0732638411206
 10
52.9533569203554
 20
-206.0070637505816
  0
ENDBLK
  5
124
330
121
100
AcDbEntity
  8
0
100
AcDbBlockEnd
  0
BLOCK
  5
12C
330
12A
100
AcDbEntity
  8
0
100
AcDbBlockBegin
  2
BLOCK_31
 70
     0
 10
0.0
 20
0.0
 30
0.0
  3
BLOCK_31
  1

  0
LWPOLYLINE
  5
12E
330
12A
100
AcDbEntity
  8
VALLEYLINE
  6
AI-LINETYPE-6
 62
     7
100
AcDbPolyline
 90
        2
 70
     0
 43
0.0
 10
84.79447968800277
 20
-190.1189723917064
 10
67.92832572086514
 20
-191.0732638411206
  0
ENDBLK
  5
12D
330
12A
100
AcDbEntity
  8
0
100
AcDbBlockEnd
  0
BLOCK
  5
135
330
133
100
AcDbEntity
  8
0
100
AcDbBlockBegin
  2
BLOCK_32
 70
     0
 10
0.0
 20
0.0
 30
0.0
  3
BLOCK_32
  1

  0
LWPOLYLINE
  5
137
330
133
100
AcDbEntity
  8
VALLEYLINE
  6
AI-LINETYPE-7
 62
     7
100
AcDbPolyline
 90
        2
 70
     0
 43
0.0
 10
67.92832572086514
 20
-191.0732638411206
 10
68.92929821410447
 20
-174.2105549694682
  0
ENDBLK
  5
136
330
133
100
AcDbEntity
  8
0
100
AcDbBlockEnd
  0
BLOCK
  5
13E
330
13C
100
AcDbEntity
  8
0
100
AcDbBlockBegin
  2
BLOCK_33
 70
     0
 10
0.0
 20
0.0
 30
0.0
  3
BLOCK_33
  1

  0
LWPOLYLINE
  5
140
330
13C
100
AcDbEntity
  8
VALLEYLINE
  6
AI-LINETYPE-8
 62
     7
100
AcDbPolyline
 90
        2
 70
     0
 43
0.0
 10
53.84443086761528
 20
-166.6068847239733
 10
44.82000324400332
 20
-169.0129394108718
  0
ENDBLK
  5
13F
330
13C
100
AcDbEntity
  8
0
100
AcDbBlockEnd
  0
BLOCK
  5
147
330
145
100
AcDbEntity
  8
0
100
AcDbBlockBegin
  2
BLOCK_34
 70
     0
 10
0.0
 20
0.0
 30
0.0
  3
BLOCK_34
  1

  0
LWPOLYLINE
  5
149
330
145
100
AcDbEntity
  8
VALLEYLINE
  6
AI-LINETYPE-9
 62
     7
100
AcDbPolyline
 90
        2
 70
     0
 43
0.0
 10
68.92929821410447
 20
-174.2105549694682
 10
53.84443086761528
 20
-166.6068847239733
  0
ENDBLK
  5
148
330
145
100
AcDbEntity
  8
0
100
AcDbBlockEnd
  0
BLOCK
  5
150
330
14E
100
AcDbEntity
  8
0
100
AcDbBlockBegin
  2
BLOCK_35
 70
     0
 10
0.0
 20
0.0
 30
0.0
  3
BLOCK_35
  1

  0
LWPOLYLINE
  5
152
330
14E
100
AcDbEntity
  8
VALLEYLINE
  6
AI-LINETYPE-10
 62
     7
100
AcDbPolyline
 90
        2
 70
     0
 43
0.0
 10
53.84443086761528
 20
-166.6068847239733
 10
63.14050427023918
 20
-152.5019747882634
  0
ENDBLK
  5
151
330
14E
100
AcDbEntity
  8
0
100
AcDbBlockEnd
  0
BLOCK
  5
159
330
157
100
AcDbEntity
  8
0
100
AcDbBlockBegin
  2
BLOCK_36
 70
     0
 10
0.0
 20
0.0
 30
0.0
  3
BLOCK_36
  1

  0
LWPOLYLINE
  5
15B
330
157
100
AcDbEntity
  8
VALLEYLINE
  6
AI-LINETYPE-11
 62
     7
100
AcDbPolyline
 90
        2
 70
     0
 43
0.0
 10
63.14050427023918
 20
-152.5019747882634
 10
54.79303790947883
 20
-139.7744140275564
  0
ENDBLK
  5
15A
330
157
100
AcDbEntity
  8
0
100
AcDbBlockEnd
  0
BLOCK
  5
162
330
160
100
AcDbEntity
  8
0
100
AcDbBlockBegin
  2
BLOCK_37
 70
     0
 10
0.0
 20
0.0
 30
0.0
  3
BLOCK_37
  1

  0
LWPOLYLINE
  5
164
330
160
100
AcDbEntity
  8
VALLEYLINE
  6
AI-LINETYPE-12
 62
     7
100
AcDbPolyline
 90
        2
 70
     0
 43
0.0
 10
63.14050427023918
 20
-152.5019747882634
 10
66.37252059972631
 20
-152.5050753742001
  0
ENDBLK
  5
163
330
160
100
AcDbEntity
  8
0
100
AcDbBlockEnd
  0
BLOCK
  5
16B
330
169
100
AcDbEntity
  8
0
100
AcDbBlockBegin
  2
BLOCK_38
 70
     0
 10
0.0
 20
0.0
 30
0.0
  3
BLOCK_38
  1

  0
LWPOLYLINE
  5
16D
330
169
100
AcDbEntity
  8
VALLEYLINE
  6
AI-LINETYPE-13
 62
     7
100
AcDbPolyline
 90
        2
 70
     0
 43
0.0
 10
68.92929821410447
 20
-174.2105549694682
 10
75.39160832533612
 20
-170.4901963549469
  0
ENDBLK
  5
16C
330
169
100
AcDbEntity
  8
0
100
AcDbBlockEnd
  0
BLOCK
  5
174
330
172
100
AcDbEntity
  8
0
100
AcDbBlockBegin
  2
BLOCK_39
 70
     0
 10
0.0
 20
0.0
 30
0.0
  3
BLOCK_39
  1

  0
LWPOLYLINE
  5
176
330
172
100
AcDbEntity
  8
VALLEYLINE
  6
AI-LINETYPE-14
 62
     7
100
AcDbPolyline
 90
        2
 70
     0
 43
0.0
 10
84.79447968800277
 20
-190.1189723917064
 10
89.81966821756245
 20
-181.4435329407502
  0
ENDBLK
  5
175
330
172
100
AcDbEntity
  8
0
100
AcDbBlockEnd
  0
BLOCK
  5
17D
330
17B
100
AcDbEntity
  8
0
100
AcDbBlockBegin
  2
BLOCK_40
 70
     0
 10
0.0
 20
0.0
 30
0.0
  3
BLOCK_40
  1

  0
LWPOLYLINE
  5
17F
330
17B
100
AcDbEntity
  8
VALLEYLINE
  6
AI-LINETYPE-15
 62
     7
100
AcDbPolyline
 90
        2
 70
     0
 43
0.0
 10
152.2814886772074
 20
-179.0691731323161
 10
171.7359428824132
 20
-190.3525498656063
  0
ENDBLK
  5
17E
330
17B
100
AcDbEntity
  8
0
100
AcDbBlockEnd
  0
BLOCK
  5
186
330
184
100
AcDbEntity
  8
0
100
AcDbBlockBegin
  2
BLOCK_41
 70
     0
 10
0.0
 20
0.0
 30
0.0
  3
BLOCK_41
  1

  0
LWPOLYLINE
  5
188
330
184
100
AcDbEntity
  8
VALLEYLINE
  6
AI-LINETYPE-16
 62
     7
100
AcDbPolyline
 90
        2
 70
     0
 43
0.0
 10
135.7484754434934
 20
-203.3212673102808
 10
144.1142008103255
 20
-217.8709390731364
  0
ENDBLK
  5
187
330
184
100
AcDbEntity
  8
0
100
AcDbBlockEnd
  0
BLOCK
  5
18F
330
18D
100
AcDbEntity
  8
0
100
AcDbBlockBegin
  2
BLOCK_42
 70
     0
 10
0.0
 20
0.0
 30
0.0
  3
BLOCK_42
  1

  0
LWPOLYLINE
  5
191
330
18D
100
AcDbEntity
  8
VALLEYLINE
  6
AI-LINETYPE-17
 62
     7
100
AcDbPolyline
 90
        2
 70
     0
 43
0.0
 10
106.4348469785995
 20
-227.8985785020531
 10
106.4582736278993
 20
-213.5242620993967
  0
ENDBLK
  5
190
330
18D
100
AcDbEntity
  8
0
100
AcDbBlockEnd
  0
BLOCK
  5
198
330
196
100
AcDbEntity
  8
0
100
AcDbBlockBegin
  2
BLOCK_43
 70
     0
 10
0.0
 20
0.0
 30
0.0
  3
BLOCK_43
  1

  0
LWPOLYLINE
  5
19A
330
196
100
AcDbEntity
  8
VALLEYLINE
  6
AI-LINETYPE-18
 62
     7
100
AcDbPolyline
 90
        2
 70
     0
 43
0.0
 10
77.20097247418934
 20
-203.2261826748879
 10
68.78804929920922
 20
-217.7486381834101
  0
ENDBLK
  5
199
330
196
100
AcDbEntity
  8
0
100
AcDbBlockEnd
  0
BLOCK
  5
1A1
330
19F
100
AcDbEntity
  8
0
100
AcDbBlockBegin
  2
BLOCK_44
 70
     0
 10
0.0
 20
0.0
 30
0.0
  3
BLOCK_44
  1

  0
LWPOLYLINE
  5
1A3
330
19F
100
AcDbEntity
  8
VALLEYLINE
  6
AI-LINETYPE-19
 62
     7
100
AcDbPolyline
 90
        2
 70
     0
 43
0.0
 10
60.74702418186186
 20
-178.9200004978047
 10
41.2555352001896
 20
-190.1399874741664
  0
ENDBLK
  5
1A2
330
19F
100
AcDbEntity
  8
0
100
AcDbBlockEnd
  0
BLOCK
  5
1AA
330
1A8
100
AcDbEntity
  8
0
100
AcDbBlockBegin
  2
BLOCK_45
 70
     0
 10
0.0
 20
0.0
 30
0.0
  3
BLOCK_45
  1

  0
LWPOLYLINE
  5
1AC
330
1A8
100
AcDbEntity
  8
VALLEYLINE
  6
AI-LINETYPE-20
 62
     7
100
AcDbPolyline
 90
        2
 70
     0
 43
0.0
 10
153.206496814997
 20
-152.5553737682848
 10
181.9055202453222
 20
-152.5584743542215
  0
ENDBLK
  5
1AB
330
1A8
100
AcDbEntity
  8
0
100
AcDbBlockEnd
  0
BLOCK
  5
1B3
330
1B1
100
AcDbEntity
  8
0
100
AcDbBlockBegin
  2
BLOCK_46
 70
     0
 10
0.0
 20
0.0
 30
0.0
  3
BLOCK_46
  1

  0
LWPOLYLINE
  5
1B5
330
1B1
100
AcDbEntity
  8
VALLEYLINE
  6
AI-LINETYPE-21
 62
     7
100
AcDbPolyline
 90
        2
 70
     0
 43
0.0
 10
171.8213812504474
 20
-114.8941066878563
 10
144.1855142868703
 20
-130.8910630640654
  0
ENDBLK
  5
1B4
330
1B1
100
AcDbEntity
  8
0
100
AcDbBlockEnd
  0
BLOCK
  5
1BC
330
1BA
100
AcDbEntity
  8
0
100
AcDbBlockBegin
  2
BLOCK_47
 70
     0
 10
0.0
 20
0.0
 30
0.0
  3
BLOCK_47
  1

  0
LWPOLYLINE
  5
1BE
330
1BA
100
AcDbEntity
  8
VALLEYLINE
  6
AI-LINETYPE-22
 62
     7
100
AcDbPolyline
 90
        2
 70
     0
 43
0.0
 10
144.2602728589001
 20
-87.31370576159172
 10
128.3211940868433
 20
-114.9826456418273
  0
ENDBLK
  5
1BD
330
1BA
100
AcDbEntity
  8
0
100
AcDbBlockEnd
  0
BLOCK
  5
1C5
330
1C3
100
AcDbEntity
  8
0
100
AcDbBlockBegin
  2
BLOCK_48
 70
     0
 10
0.0
 20
0.0
 30
0.0
  3
BLOCK_48
  1

  0
LWPOLYLINE
  5
1C7
330
1C3
100
AcDbEntity
  8
VALLEYLINE
  6
AI-LINETYPE-23
 62
     7
100
AcDbPolyline
 90
        2
 70
     0
 43
0.0
 10
106.6036566573769
 20
-77.20235051238344
 10
106.5843641226595
 20
-109.1335625269701
  0
ENDBLK
  5
1C6
330
1C3
100
AcDbEntity
  8
0
100
AcDbBlockEnd
  0
BLOCK
  5
1CE
330
1CC
100
AcDbEntity
  8
0
100
AcDbBlockBegin
  2
BLOCK_49
 70
     0
 10
0.0
 20
0.0
 30
0.0
  3
BLOCK_49
  1

  0
LWPOLYLINE
  5
1D0
330
1CC
100
AcDbEntity
  8
VALLEYLINE
  6
AI-LINETYPE-24
 62
     7
100
AcDbPolyline
 90
        2
 70
     0
 43
0.0
 10
68.93446585733236
 20
-87.26736922731509
 10
84.8788845273914
 20
-114.9333807763882
  0
ENDBLK
  5
1CF
330
1CC
100
AcDbEntity
  8
0
100
AcDbBlockEnd
  0
BLOCK
  5
1D7
330
1D5
100
AcDbEntity
  8
0
100
AcDbBlockBegin
  2
BLOCK_50
 70
     0
 10
0.0
 20
0.0
 30
0.0
  3
BLOCK_50
  1

  0
LWPOLYLINE
  5
1D9
330
1D5
100
AcDbEntity
  8
VALLEYLINE
  6
AI-LINETYPE-25
 62
     7
100
AcDbPolyline
 90
        2
 70
     0
 43
0.0
 10
41.33976778480395
 20
-114.8143527273728
 10
68.97804631522078
 20
-130.8063137151282
  0
ENDBLK
  5
1D8
330
1D5
100
AcDbEntity
  8
0
100
AcDbBlockEnd
  0
BLOCK
  5
1E0
330
1DE
100
AcDbEntity
  8
0
100
AcDbBlockBegin
  2
BLOCK_51
 70
     0
 10
0.0
 20
0.0
 30
0.0
  3
BLOCK_51
  1

  0
LWPOLYLINE
  5
1E2
330
1DE
100
AcDbEntity
  8
VALLEYLINE
  6
AI-LINETYPE-26
 62
     7
100
AcDbPolyline
 90
        2
 70
     0
 43
0.0
 10
59.90866019552631
 20
-152.4985296927782
 10
31.20894774610402
 20
-152.4658012856683
  0
ENDBLK
  5
1E1
330
1DE
100
AcDbEntity
  8
0
100
AcDbBlockEnd
  0
BLOCK
  5
1E9
330
1E7
100
AcDbEntity
  8
0
100
AcDbBlockBegin
  2
BLOCK_52
 70
     0
 10
0.0
 20
0.0
 30
0.0
  3
BLOCK_52
  1

  0
LWPOLYLINE
  5
1EB
330
1E7
100
AcDbEntity
  8
VALLEYLINE
  6
AI-LINETYPE-27
 62
     7
100
AcDbPolyline
 90
        2
 70
     0
 43
0.0
 10
106.5574923778745
 20
-152.5505506346054
 10
106.5767849125919
 20
-121.7090223220033
  0
ENDBLK
  5
1EA
330
1E7
100
AcDbEntity
  8
0
100
AcDbBlockEnd
  0
BLOCK
  5
1F2
330
1F0
100
AcDbEntity
  8
0
100
AcDbBlockBegin
  2
BLOCK_53
 70
     0
 10
0.0
 20
0.0
 30
0.0
  3
BLOCK_53
  1

  0
LWPOLYLINE
  5
1F4
330
1F0
100
AcDbEntity
  8
VALLEYLINE
  6
AI-LINETYPE-28
 62
     7
100
AcDbPolyline
 90
        2
 70
     0
 43
0.0
 10
106.5767849125919
 20
-121.7090223220033
 10
95.04432777571807
 20
-109.4598130694232
  0
ENDBLK
  5
1F3
330
1F0
100
AcDbEntity
  8
0
100
AcDbBlockEnd
  0
BLOCK
  5
1FB
330
1F9
100
AcDbEntity
  8
0
100
AcDbBlockBegin
  2
BLOCK_54
 70
     0
 10
0.0
 20
0.0
 30
0.0
  3
BLOCK_54
  1

  0
LWPOLYLINE
  5
1FD
330
1F9
100
AcDbEntity
  8
VALLEYLINE
  6
AI-LINETYPE-29
 62
     7
100
AcDbPolyline
 90
        2
 70
     0
 43
0.0
 10
118.1688422013606
 20
-109.4861680498854
 10
106.5767849125919
 20
-121.7090223220033
  0
ENDBLK
  5
1FC
330
1F9
100
AcDbEntity
  8
0
100
AcDbBlockEnd
  0
BLOCK
  5
204
330
202
100
AcDbEntity
  8
0
100
AcDbBlockBegin
  2
BLOCK_55
 70
     0
 10
0.0
 20
0.0
 30
0.0
  3
BLOCK_55
  1

  0
LWPOLYLINE
  5
206
330
202
100
AcDbEntity
  8
VALLEYLINE
  6
AI-LINETYPE-30
 62
     7
100
AcDbPolyline
 90
        2
 70
     0
 43
0.0
 10
106.5574923778745
 20
-152.5505506346054
 10
121.2205077821949
 20
-127.299895530241
  0
ENDBLK
  5
205
330
202
100
AcDbEntity
  8
0
100
AcDbBlockEnd
  0
BLOCK
  5
20D
330
20B
100
AcDbEntity
  8
0
100
AcDbBlockBegin
  2
BLOCK_56
 70
     0
 10
0.0
 20
0.0
 30
0.0
  3
BLOCK_56
  1

  0
LWPOLYLINE
  5
20F
330
20B
100
AcDbEntity
  8
VALLEYLINE
  6
AI-LINETYPE-31
 62
     7
100
AcDbPolyline
 90
        2
 70
     0
 43
0.0
 10
121.2205077821949
 20
-127.299895530241
 10
118.1915798315632
 20
-109.4920247122103
  0
ENDBLK
  5
20E
330
20B
100
AcDbEntity
  8
0
100
AcDbBlockEnd
  0
BLOCK
  5
216
330
214
100
AcDbEntity
  8
0
100
AcDbBlockBegin
  2
BLOCK_57
 70
     0
 10
0.0
 20
0.0
 30
0.0
  3
BLOCK_57
  1

  0
LWPOLYLINE
  5
218
330
214
100
AcDbEntity
  8
VALLEYLINE
  6
AI-LINETYPE-32
 62
     7
100
AcDbPolyline
 90
        2
 70
     0
 43
0.0
 10
133.5818548928198
 20
-125.6569294933254
 10
121.2205077821949
 20
-127.299895530241
  0
ENDBLK
  5
217
330
214
100
AcDbEntity
  8
0
100
AcDbBlockEnd
  0
BLOCK
  5
21F
330
21D
100
AcDbEntity
  8
0
100
AcDbBlockBegin
  2
BLOCK_58
 70
     0
 10
0.0
 20
0.0
 30
0.0
  3
BLOCK_58
  1

  0
LWPOLYLINE
  5
221
330
21D
100
AcDbEntity
  8
VALLEYLINE
  6
AI-LINETYPE-33
 62
     7
100
AcDbPolyline
 90
        2
 70
     0
 43
0.0
 10
106.5574923778745
 20
-152.5505506346054
 10
84.49423961646324
 20
-139.7837157853666
  0
ENDBLK
  5
220
330
21D
100
AcDbEntity
  8
0
100
AcDbBlockEnd
  0
BLOCK
  5
228
330
226
100
AcDbEntity
  8
0
100
AcDbBlockBegin
  2
BLOCK_59
 70
     0
 10
0.0
 20
0.0
 30
0.0
  3
BLOCK_59
  1

  0
LWPOLYLINE
  5
22A
330
226
100
AcDbEntity
  8
VALLEYLINE
  6
AI-LINETYPE-34
 62
     7
100
AcDbPolyline
 90
        2
 70
     0
 43
0.0
 10
84.49423961646324
 20
-139.7837157853666
 10
77.14120006752025
 20
-144.6350992476954
  0
ENDBLK
  5
229
330
226
100
AcDbEntity
  8
0
100
AcDbBlockEnd
  0
BLOCK
  5
231
330
22F
100
AcDbEntity
  8
0
100
AcDbBlockBegin
  2
BLOCK_60
 70
     0
 10
0.0
 20
0.0
 30
0.0
  3
BLOCK_60
  1

  0
LWPOLYLINE
  5
233
330
22F
100
AcDbEntity
  8
VALLEYLINE
  6
AI-LINETYPE-35
 62
     7
100
AcDbPolyline
 90
        2
 70
     0
 43
0.0
 10
79.62287460031996
 20
-125.5685627941287
 10
84.49423961646324
 20
-139.7837157853666
  0
ENDBLK
  5
232
330
22F
100
AcDbEntity
  8
0
100
AcDbBlockEnd
  0
BLOCK
  5
23A
330
238
100
AcDbEntity
  8
0
100
AcDbBlockBegin
  2
BLOCK_61
 70
     0
 10
0.0
 20
0.0
 30
0.0
  3
BLOCK_61
  1

  0
LWPOLYLINE
  5
23C
330
238
100
AcDbEntity
  8
VALLEYLINE
  6
AI-LINETYPE-36
 62
     7
100
AcDbPolyline
 90
        2
 70
     0
 43
0.0
 10
106.5574923778745
 20
-152.5505506346054
 10
128.6636365780772
 20
-139.8564073001054
  0
ENDBLK
  5
23B
330
238
100
AcDbEntity
  8
0
100
AcDbBlockEnd
  0
BLOCK
  5
243
330
241
100
AcDbEntity
  8
0
100
AcDbBlockBegin
  2
BLOCK_62
 70
     0
 10
0.0
 20
0.0
 30
0.0
  3
BLOCK_62
  1

  0
LWPOLYLINE
  5
245
330
241
100
AcDbEntity
  8
VALLEYLINE
  6
AI-LINETYPE-37
 62
     7
100
AcDbPolyline
 90
        2
 70
     0
 43
0.0
 10
128.6636365780772
 20
-139.8564073001054
 10
133.5818548928198
 20
-125.6569294933254
  0
ENDBLK
  5
244
330
241
100
AcDbEntity
  8
0
100
AcDbBlockEnd
  0
BLOCK
  5
24C
330
24A
100
AcDbEntity
  8
0
100
AcDbBlockBegin
  2
BLOCK_63
 70
     0
 10
0.0
 20
0.0
 30
0.0
  3
BLOCK_63
  1

  0
LWPOLYLINE
  5
24E
330
24A
100
AcDbEntity
  8
VALLEYLINE
  6
AI-LINETYPE-38
 62
     7
100
AcDbPolyline
 90
        2
 70
     0
 43
0.0
 10
136.0003119234652
 20
-144.7322509403794
 10
128.6636365780772
 20
-139.8564073001054
  0
ENDBLK
  5
24D
330
24A
100
AcDbEntity
  8
0
100
AcDbBlockEnd
  0
BLOCK
  5
255
330
253
100
AcDbEntity
  8
0
100
AcDbBlockBegin
  2
BLOCK_64
 70
     0
 10
0.0
 20
0.0
 30
0.0
  3
BLOCK_64
  1

  0
LWPOLYLINE
  5
257
330
253
100
AcDbEntity
  8
VALLEYLINE
  6
AI-LINETYPE-39
 62
     7
100
AcDbPolyline
 90
        2
 70
     0
 43
0.0
 10
106.5574923778745
 20
-152.5505506346054
 10
106.530276123541
 20
-169.3164523231223
  0
ENDBLK
  5
256
330
253
100
AcDbEntity
  8
0
100
AcDbBlockEnd
  0
BLOCK
  5
25E
330
25C
100
AcDbEntity
  8
0
100
AcDbBlockBegin
  2
BLOCK_65
 70
     0
 10
0.0
 20
0.0
 30
0.0
  3
BLOCK_65
  1

  0
LWPOLYLINE
  5
260
330
25C
100
AcDbEntity
  8
VALLEYLINE
  6
AI-LINETYPE-40
 62
     7
100
AcDbPolyline
 90
        2
 70
     0
 43
0.0
 10
106.530276123541
 20
-169.3164523231223
 10
111.6142035311242
 20
-171.5540418407921
  0
ENDBLK
  5
25F
330
25C
100
AcDbEntity
  8
0
100
AcDbBlockEnd
  0
BLOCK
  5
267
330
265
100
AcDbEntity
  8
0
100
AcDbBlockBegin
  2
BLOCK_66
 70
     0
 10
0.0
 20
0.0
 30
0.0
  3
BLOCK_66
  1

  0
LWPOLYLINE
  5
269
330
265
100
AcDbEntity
  8
VALLEYLINE
  6
AI-LINETYPE-41
 62
     7
100
AcDbPolyline
 90
        2
 70
     0
 43
0.0
 10
101.4384249963418
 20
-171.5375053824629
 10
106.530276123541
 20
-169.3164523231223
  0
ENDBLK
  5
268
330
265
100
AcDbEntity
  8
0
100
AcDbBlockEnd
  0
BLOCK
  5
270
330
26E
100
AcDbEntity
  8
0
100
AcDbBlockBegin
  2
BLOCK_67
 70
     0
 10
0.0
 20
0.0
 30
0.0
  3
BLOCK_67
  1

  0
LWPOLYLINE
  5
272
330
26E
100
AcDbEntity
  8
VALLEYLINE
  6
AI-LINETYPE-42
 62
     7
100
AcDbPolyline
 90
        2
 70
     0
 43
0.0
 10
115.1778103010667
 20
-167.5436061864127
 10
106.5574923778745
 20
-152.5505506346054
  0
ENDBLK
  5
271
330
26E
100
AcDbEntity
  8
0
100
AcDbBlockEnd
  0
BLOCK
  5
279
330
277
100
AcDbEntity
  8
0
100
AcDbBlockBegin
  2
BLOCK_68
 70
     0
 10
0.0
 20
0.0
 30
0.0
  3
BLOCK_68
  1

  0
LWPOLYLINE
  5
27B
330
277
100
AcDbEntity
  8
VALLEYLINE
  6
AI-LINETYPE-43
 62
     7
100
AcDbPolyline
 90
        2
 70
     0
 43
0.0
 10
111.6142035311242
 20
-171.5540418407921
 10
115.1778103010667
 20
-167.5436061864127
  0
ENDBLK
  5
27A
330
277
100
AcDbEntity
  8
0
100
AcDbBlockEnd
  0
BLOCK
  5
282
330
280
100
AcDbEntity
  8
0
100
AcDbBlockBegin
  2
BLOCK_69
 70
     0
 10
0.0
 20
0.0
 30
0.0
  3
BLOCK_69
  1

  0
LWPOLYLINE
  5
284
330
280
100
AcDbEntity
  8
VALLEYLINE
  6
AI-LINETYPE-44
 62
     7
100
AcDbPolyline
 90
        2
 70
     0
 43
0.0
 10
115.1778103010667
 20
-167.5436061864127
 10
121.560538706589
 20
-167.6104410388266
  0
ENDBLK
  5
283
330
280
100
AcDbEntity
  8
0
100
AcDbBlockEnd
  0
BLOCK
  5
28B
330
289
100
AcDbEntity
  8
0
100
AcDbBlockBegin
  2
BLOCK_70
 70
     0
 10
0.0
 20
0.0
 30
0.0
  3
BLOCK_70
  1

  0
LWPOLYLINE
  5
28D
330
289
100
AcDbEntity
  8
VALLEYLINE
  6
AI-LINETYPE-45
 62
     7
100
AcDbPolyline
 90
        2
 70
     0
 43
0.0
 10
106.5574923778745
 20
-152.5505506346054
 10
97.88859860834037
 20
-167.5150118938851
  0
ENDBLK
  5
28C
330
289
100
AcDbEntity
  8
0
100
AcDbBlockEnd
  0
BLOCK
  5
294
330
292
100
AcDbEntity
  8
0
100
AcDbBlockBegin
  2
BLOCK_71
 70
     0
 10
0.0
 20
0.0
 30
0.0
  3
BLOCK_71
  1

  0
LWPOLYLINE
  5
296
330
292
100
AcDbEntity
  8
VALLEYLINE
  6
AI-LINETYPE-46
 62
     7
100
AcDbPolyline
 90
        2
 70
     0
 43
0.0
 10
97.88859860834037
 20
-167.5150118938851
 10
101.4384249963418
 20
-171.5375053824629
  0
ENDBLK
  5
295
330
292
100
AcDbEntity
  8
0
100
AcDbBlockEnd
  0
BLOCK
  5
29D
330
29B
100
AcDbEntity
  8
0
100
AcDbBlockBegin
  2
BLOCK_72
 70
     0
 10
0.0
 20
0.0
 30
0.0
  3
BLOCK_72
  1

  0
LWPOLYLINE
  5
29F
330
29B
100
AcDbEntity
  8
VALLEYLINE
  6
AI-LINETYPE-47
 62
     7
100
AcDbPolyline
 90
        2
 70
     0
 43
0.0
 10
91.50569794804374
 20
-167.560831663839
 10
97.88859860834037
 20
-167.5150118938851
  0
ENDBLK
  5
29E
330
29B
100
AcDbEntity
  8
0
100
AcDbBlockEnd
  0
BLOCK
  5
2A6
330
2A4
100
AcDbEntity
  8
0
100
AcDbBlockBegin
  2
BLOCK_73
 70
     0
 10
0.0
 20
0.0
 30
0.0
  3
BLOCK_73
  1

  0
LWPOLYLINE
  5
2A8
330
2A4
100
AcDbEntity
  8
VALLEYLINE
  6
AI-LINETYPE-48
 62
     7
100
AcDbPolyline
 90
        2
 70
     0
 43
0.0
 10
122.9285861237817
 20
-162.0462673205996
 10
106.5574923778745
 20
-152.5505506346054
  0
ENDBLK
  5
2A7
330
2A4
100
AcDbEntity
  8
0
100
AcDbBlockEnd
  0
BLOCK
  5
2AF
330
2AD
100
AcDbEntity
  8
0
100
AcDbBlockBegin
  2
BLOCK_74
 70
     0
 10
0.0
 20
0.0
 30
0.0
  3
BLOCK_74
  1

  0
LWPOLYLINE
  5
2B1
330
2AD
100
AcDbEntity
  8
VALLEYLINE
  6
AI-LINETYPE-49
 62
     7
100
AcDbPolyline
 90
        2
 70
     0
 43
0.0
 10
121.560538706589
 20
-167.6104410388266
 10
122.9285861237817
 20
-162.0462673205996
  0
ENDBLK
  5
2B0
330
2AD
100
AcDbEntity
  8
0
100
AcDbBlockEnd
  0
BLOCK
  5
2B8
330
2B6
100
AcDbEntity
  8
0
100
AcDbBlockBegin
  2
BLOCK_75
 70
     0
 10
0.0
 20
0.0
 30
0.0
  3
BLOCK_75
  1

  0
LWPOLYLINE
  5
2BA
330
2B6
100
AcDbEntity
  8
VALLEYLINE
  6
AI-LINETYPE-50
 62
     7
100
AcDbPolyline
 90
        2
 70
     0
 43
0.0
 10
122.9285861237817
 20
-162.0462673205996
 10
130.426836447428
 20
-158.9994248734446
  0
ENDBLK
  5
2B9
330
2B6
100
AcDbEntity
  8
0
100
AcDbBlockEnd
  0
BLOCK
  5
2C1
330
2BF
100
AcDbEntity
  8
0
100
AcDbBlockBegin
  2
BLOCK_76
 70
     0
 10
0.0
 20
0.0
 30
0.0
  3
BLOCK_76
  1

  0
LWPOLYLINE
  5
2C3
330
2BF
100
AcDbEntity
  8
VALLEYLINE
  6
AI-LINETYPE-51
 62
     7
100
AcDbPolyline
 90
        2
 70
     0
 43
0.0
 10
106.5574923778745
 20
-152.5505506346054
 10
90.1555650273743
 20
-161.9918348119326
  0
ENDBLK
  5
2C2
330
2BF
100
AcDbEntity
  8
0
100
AcDbBlockEnd
  0
BLOCK
  5
2CA
330
2C8
100
AcDbEntity
  8
0
100
AcDbBlockBegin
  2
BLOCK_77
 70
     0
 10
0.0
 20
0.0
 30
0.0
  3
BLOCK_77
  1

  0
LWPOLYLINE
  5
2CC
330
2C8
100
AcDbEntity
  8
VALLEYLINE
  6
AI-LINETYPE-52
 62
     7
100
AcDbPolyline
 90
        2
 70
     0
 43
0.0
 10
90.1555650273743
 20
-161.9918348119326
 10
91.50569794804374
 20
-167.560831663839
  0
ENDBLK
  5
2CB
330
2C8
100
AcDbEntity
  8
0
100
AcDbBlockEnd
  0
BLOCK
  5
2D3
330
2D1
100
AcDbEntity
  8
0
100
AcDbBlockBegin
  2
BLOCK_78
 70
     0
 10
0.0
 20
0.0
 30
0.0
  3
BLOCK_78
  1

  0
LWPOLYLINE
  5
2D5
330
2D1
100
AcDbEntity
  8
VALLEYLINE
  6
AI-LINETYPE-53
 62
     7
100
AcDbPolyline
 90
        2
 70
     0
 43
0.0
 10
82.66747773540952
 20
-158.9208766963809
 10
90.1555650273743
 20
-161.9918348119326
  0
ENDBLK
  5
2D4
330
2D1
100
AcDbEntity
  8
0
100
AcDbBlockEnd
  0
BLOCK
  5
2DC
330
2DA
100
AcDbEntity
  8
0
100
AcDbBlockBegin
  2
BLOCK_79
 70
     0
 10
0.0
 20
0.0
 30
0.0
  3
BLOCK_79
  1

  0
LWPOLYLINE
  5
2DE
330
2DA
100
AcDbEntity
  8
VALLEYLINE
  6
AI-LINETYPE-54
 62
     7
100
AcDbPolyline
 90
        2
 70
     0
 43
0.0
 10
128.2808864696659
 20
-152.5977484427534
 10
106.5574923778745
 20
-152.5505506346054
  0
ENDBLK
  5
2DD
330
2DA
100
AcDbEntity
  8
0
100
AcDbBlockEnd
  0
BLOCK
  5
2E5
330
2E3
100
AcDbEntity
  8
0
100
AcDbBlockBegin
  2
BLOCK_80
 70
     0
 10
0.0
 20
0.0
 30
0.0
  3
BLOCK_80
  1

  0
LWPOLYLINE
  5
2E7
330
2E3
100
AcDbEntity
  8
VALLEYLINE
  6
AI-LINETYPE-55
 62
     7
100
AcDbPolyline
 90
        2
 70
     0
 43
0.0
 10
130.426836447428
 20
-158.9994248734446
 10
128.2808864696659
 20
-152.5977484427534
  0
ENDBLK
  5
2E6
330
2E3
100
AcDbEntity
  8
0
100
AcDbBlockEnd
  0
BLOCK
  5
2EE
330
2EC
100
AcDbEntity
  8
0
100
AcDbBlockBegin
  2
BLOCK_81
 70
     0
 10
0.0
 20
0.0
 30
0.0
  3
BLOCK_81
  1

  0
LWPOLYLINE
  5
2F0
330
2EC
100
AcDbEntity
  8
VALLEYLINE
  6
AI-LINETYPE-56
 62
     7
100
AcDbPolyline
 90
        2
 70
     0
 43
0.0
 10
135.1569525486761
 20
-145.5914577544007
 10
136.0003119234652
 20
-144.7322509403794
  0
ENDBLK
  5
2EF
330
2EC
100
AcDbEntity
  8
0
100
AcDbBlockEnd
  0
BLOCK
  5
2F7
330
2F5
100
AcDbEntity
  8
0
100
AcDbBlockBegin
  2
BLOCK_82
 70
     0
 10
0.0
 20
0.0
 30
0.0
  3
BLOCK_82
  1

  0
LWPOLYLINE
  5
2F9
330
2F5
100
AcDbEntity
  8
VALLEYLINE
  6
AI-LINETYPE-57
 62
     7
100
AcDbPolyline
 90
        2
 70
     0
 43
0.0
 10
128.2808864696659
 20
-152.5977484427534
 10
135.1569525486761
 20
-145.5914577544007
  0
ENDBLK
  5
2F8
330
2F5
100
AcDbEntity
  8
0
100
AcDbBlockEnd
  0
BLOCK
  5
300
330
2FE
100
AcDbEntity
  8
0
100
AcDbBlockBegin
  2
BLOCK_83
 70
     0
 10
0.0
 20
0.0
 30
0.0
  3
BLOCK_83
  1

  0
LWPOLYLINE
  5
302
330
2FE
100
AcDbEntity
  8
VALLEYLINE
  6
AI-LINETYPE-58
 62
     7
100
AcDbPolyline
 90
        2
 70
     0
 43
0.0
 10
106.5574923778745
 20
-152.5505506346054
 10
84.83513181472874
 20
-152.5260904566601
  0
ENDBLK
  5
301
330
2FE
100
AcDbEntity
  8
0
100
AcDbBlockEnd
  0
BLOCK
  5
309
330
307
100
AcDbEntity
  8
0
100
AcDbBlockBegin
  2
BLOCK_84
 70
     0
 10
0.0
 20
0.0
 30
0.0
  3
BLOCK_84
  1

  0
LWPOLYLINE
  5
30B
330
307
100
AcDbEntity
  8
VALLEYLINE
  6
AI-LINETYPE-59
 62
     7
100
AcDbPolyline
 90
        2
 70
     0
 43
0.0
 10
84.83513181472874
 20
-152.5260904566601
 10
82.66747773540952
 20
-158.9208766963809
  0
ENDBLK
  5
30A
330
307
100
AcDbEntity
  8
0
100
AcDbBlockEnd
  0
BLOCK
  5
312
330
310
100
AcDbEntity
  8
0
100
AcDbBlockBegin
  2
BLOCK_85
 70
     0
 10
0.0
 20
0.0
 30
0.0
  3
BLOCK_85
  1

  0
LWPOLYLINE
  5
314
330
310
100
AcDbEntity
  8
VALLEYLINE
  6
AI-LINETYPE-60
 62
     7
100
AcDbPolyline
 90
        2
 70
     0
 43
0.0
 10
77.14120006752025
 20
-144.6350992476954
 10
84.83513181472874
 20
-152.5260904566601
  0
ENDBLK
  5
313
330
310
100
AcDbEntity
  8
0
100
AcDbBlockEnd
  0
BLOCK
  5
31B
330
319
100
AcDbEntity
  8
0
100
AcDbBlockBegin
  2
BLOCK_86
 70
     0
 10
0.0
 20
0.0
 30
0.0
  3
BLOCK_86
  1

  0
LWPOLYLINE
  5
31D
330
319
100
AcDbEntity
  8
VALLEYLINE
  6
AI-LINETYPE-61
 62
     7
100
AcDbPolyline
 90
        2
 70
     0
 43
0.0
 10
106.5574923778745
 20
-152.5505506346054
 10
91.97802053907148
 20
-127.2518364482218
  0
ENDBLK
  5
31C
330
319
100
AcDbEntity
  8
0
100
AcDbBlockEnd
  0
BLOCK
  5
324
330
322
100
AcDbEntity
  8
0
100
AcDbBlockBegin
  2
BLOCK_87
 70
     0
 10
0.0
 20
0.0
 30
0.0
  3
BLOCK_87
  1

  0
LWPOLYLINE
  5
326
330
322
100
AcDbEntity
  8
VALLEYLINE
  6
AI-LINETYPE-62
 62
     7
100
AcDbPolyline
 90
        2
 70
     0
 43
0.0
 10
91.97802053907148
 20
-127.2518364482218
 10
79.62287460031996
 20
-125.5685627941287
  0
ENDBLK
  5
325
330
322
100
AcDbEntity
  8
0
100
AcDbBlockEnd
  0
BLOCK
  5
32D
330
32B
100
AcDbEntity
  8
0
100
AcDbBlockBegin
  2
BLOCK_88
 70
     0
 10
0.0
 20
0.0
 30
0.0
  3
BLOCK_88
  1

  0
LWPOLYLINE
  5
32F
330
32B
100
AcDbEntity
  8
VALLEYLINE
  6
AI-LINETYPE-63
 62
     7
100
AcDbPolyline
 90
        2
 70
     0
 43
0.0
 10
95.04432777571807
 20
-109.4598130694232
 10
91.97802053907148
 20
-127.2518364482218
  0
ENDBLK
  5
32E
330
32B
100
AcDbEntity
  8
0
100
AcDbBlockEnd
  0
BLOCK
  5
336
330
334
100
AcDbEntity
  8
0
100
AcDbBlockBegin
  2
BLOCK_89
 70
     0
 10
0.0
 20
0.0
 30
0.0
  3
BLOCK_89
  1

  0
LWPOLYLINE
  5
338
330
334
100
AcDbEntity
  8
VALLEYLINE
  6
AI-LINETYPE-64
 62
     7
100
AcDbPolyline
 90
        2
 70
     0
 43
0.0
 10
116.4821234517823
 20
-189.8464653388231
 10
111.6142035311242
 20
-171.5540418407921
  0
ENDBLK
  5
337
330
334
100
AcDbEntity
  8
0
100
AcDbBlockEnd
  0
BLOCK
  5
33F
330
33D
100
AcDbEntity
  8
0
100
AcDbBlockBegin
  2
BLOCK_90
 70
     0
 10
0.0
 20
0.0
 30
0.0
  3
BLOCK_90
  1

  0
LWPOLYLINE
  5
341
330
33D
100
AcDbEntity
  8
VALLEYLINE
  6
AI-LINETYPE-65
 62
     7
100
AcDbPolyline
 90
        2
 70
     0
 43
0.0
 10
101.4387695058903
 20
-171.5381944015599
 10
96.51090492378893
 20
-189.8137369317131
  0
ENDBLK
  5
340
330
33D
100
AcDbEntity
  8
0
100
AcDbBlockEnd
  0
BLOCK
  5
348
330
346
100
AcDbEntity
  8
0
100
AcDbBlockBegin
  2
BLOCK_91
 70
     0
 10
0.0
 20
0.0
 30
0.0
  3
BLOCK_91
  1

  0
LWPOLYLINE
  5
34A
330
346
100
AcDbEntity
  8
VALLEYLINE
  6
AI-LINETYPE-66
 62
     7
100
AcDbPolyline
 90
        2
 70
     0
 43
0.0
 10
135.6323757256405
 20
-181.7349880188024
 10
121.560538706589
 20
-167.6104410388266
  0
ENDBLK
  5
349
330
346
100
AcDbEntity
  8
0
100
AcDbBlockEnd
  0
BLOCK
  5
351
330
34F
100
AcDbEntity
  8
0
100
AcDbBlockBegin
  2
BLOCK_92
 70
     0
 10
0.0
 20
0.0
 30
0.0
  3
BLOCK_92
  1

  0
LWPOLYLINE
  5
353
330
34F
100
AcDbEntity
  8
VALLEYLINE
  6
AI-LINETYPE-67
 62
     7
100
AcDbPolyline
 90
        2
 70
     0
 43
0.0
 10
91.50569794804374
 20
-167.560831663839
 10
77.38786890426415
 20
-181.6395588738609
  0
ENDBLK
  5
352
330
34F
100
AcDbEntity
  8
0
100
AcDbBlockEnd
  0
BLOCK
  5
35A
330
358
100
AcDbEntity
  8
0
100
AcDbBlockBegin
  2
BLOCK_93
 70
     0
 10
0.0
 20
0.0
 30
0.0
  3
BLOCK_93
  1

  0
LWPOLYLINE
  5
35C
330
358
100
AcDbEntity
  8
VALLEYLINE
  6
AI-LINETYPE-68
 62
     7
100
AcDbPolyline
 90
        2
 70
     0
 43
0.0
 10
151.5842013509929
 20
-164.7158718121196
 10
130.426836447428
 20
-158.9994248734446
  0
ENDBLK
  5
35B
330
358
100
AcDbEntity
  8
0
100
AcDbBlockEnd
  0
BLOCK
  5
363
330
361
100
AcDbEntity
  8
0
100
AcDbBlockBegin
  2
BLOCK_94
 70
     0
 10
0.0
 20
0.0
 30
0.0
  3
BLOCK_94
  1

  0
LWPOLYLINE
  5
365
330
361
100
AcDbEntity
  8
VALLEYLINE
  6
AI-LINETYPE-69
 62
     7
100
AcDbPolyline
 90
        2
 70
     0
 43
0.0
 10
82.66747773540952
 20
-158.9208766963809
 10
61.49168157099861
 20
-164.5673881967054
  0
ENDBLK
  5
364
330
361
100
AcDbEntity
  8
0
100
AcDbBlockEnd
  0
BLOCK
  5
36C
330
36A
100
AcDbEntity
  8
0
100
AcDbBlockBegin
  2
BLOCK_95
 70
     0
 10
0.0
 20
0.0
 30
0.0
  3
BLOCK_95
  1

  0
LWPOLYLINE
  5
36E
330
36A
100
AcDbEntity
  8
VALLEYLINE
  6
AI-LINETYPE-70
 62
     7
100
AcDbPolyline
 90
        2
 70
     0
 43
0.0
 10
120.759898515817
 20
-99.8764187033295
 10
118.1574733862593
 20
-109.4832397187229
  0
ENDBLK
  5
36D
330
36A
100
AcDbEntity
  8
0
100
AcDbBlockEnd
  0
BLOCK
  5
375
330
373
100
AcDbEntity
  8
0
100
AcDbBlockBegin
  2
BLOCK_96
 70
     0
 10
0.0
 20
0.0
 30
0.0
  3
BLOCK_96
  1

  0
LWPOLYLINE
  5
377
330
373
100
AcDbEntity
  8
VALLEYLINE
  6
AI-LINETYPE-71
 62
     7
100
AcDbPolyline
 90
        2
 70
     0
 43
0.0
 10
133.5818548928198
 20
-125.6571017480996
 10
145.1870035444324
 20
-114.027665173316
  0
ENDBLK
  5
376
330
373
100
AcDbEntity
  8
0
100
AcDbBlockEnd
  0
BLOCK
  5
37E
330
37C
100
AcDbEntity
  8
0
100
AcDbBlockBegin
  2
BLOCK_97
 70
     0
 10
0.0
 20
0.0
 30
0.0
  3
BLOCK_97
  1

  0
LWPOLYLINE
  5
380
330
37C
100
AcDbEntity
  8
VALLEYLINE
  6
AI-LINETYPE-72
 62
     7
100
AcDbPolyline
 90
        2
 70
     0
 43
0.0
 10
136.0003119234652
 20
-144.7322509403794
 10
159.2705538881337
 20
-138.4949055643346
  0
ENDBLK
  5
37F
330
37C
100
AcDbEntity
  8
0
100
AcDbBlockEnd
  0
BLOCK
  5
387
330
385
100
AcDbEntity
  8
0
100
AcDbBlockBegin
  2
BLOCK_98
 70
     0
 10
0.0
 20
0.0
 30
0.0
  3
BLOCK_98
  1

  0
LWPOLYLINE
  5
389
330
385
100
AcDbEntity
  8
VALLEYLINE
  6
AI-LINETYPE-73
 62
     7
100
AcDbPolyline
 90
        2
 70
     0
 43
0.0
 10
53.87664251040236
 20
-138.375705260545
 10
77.14120006752025
 20
-144.6350992476954
  0
ENDBLK
  5
388
330
385
100
AcDbEntity
  8
0
100
AcDbBlockEnd
  0
BLOCK
  5
390
330
38E
100
AcDbEntity
  8
0
100
AcDbBlockBegin
  2
BLOCK_99
 70
     0
 10
0.0
 20
0.0
 30
0.0
  3
BLOCK_99
  1

  0
LWPOLYLINE
  5
392
330
38E
100
AcDbEntity
  8
VALLEYLINE
  6
AI-LINETYPE-74
 62
     7
100
AcDbPolyline
 90
        2
 70
     0
 43
0.0
 10
79.62287460031996
 20
-125.5685627941287
 10
68.01514212709344
 20
-113.9408487670877
  0
ENDBLK
  5
391
330
38E
100
AcDbEntity
  8
0
100
AcDbBlockEnd
  0
BLOCK
  5
399
330
397
100
AcDbEntity
  8
0
100
AcDbBlockBegin
  2
BLOCK_100
 70
     0
 10
0.0
 20
0.0
 30
0.0
  3
BLOCK_100
  1

  0
LWPOLYLINE
  5
39B
330
397
100
AcDbEntity
  8
VALLEYLINE
  6
AI-LINETYPE-75
 62
     7
100
AcDbPolyline
 90
        2
 70
     0
 43
0.0
 10
95.04432777571807
 20
-109.4598130694232
 10
92.47463105327023
 20
-99.84472382486522
  0
ENDBLK
  5
39A
330
397
100
AcDbEntity
  8
0
100
AcDbBlockEnd
  0
BLOCK
  5
3A2
330
3A0
100
AcDbEntity
  8
0
100
AcDbBlockBegin
  2
BLOCK_101
 70
     0
 10
0.0
 20
0.0
 30
0.0
  3
BLOCK_101
  1

  0
LWPOLYLINE
  5
3A4
330
3A0
100
AcDbEntity
  8
VALLEYLINE
  6
AI-LINETYPE-76
 62
     7
100
AcDbPolyline
 90
        2
 70
     0
 43
0.0
 10
158.357259074994
 20
-139.9180745092913
 10
149.9746527402841
 20
-152.6442572318041
  0
ENDBLK
  5
3A3
330
3A0
100
AcDbEntity
  8
0
100
AcDbBlockEnd
  0
BLOCK
  5
3AB
330
3A9
100
AcDbEntity
  8
0
100
AcDbBlockBegin
  2
BLOCK_102
 70
     0
 10
0.0
 20
0.0
 30
0.0
  3
BLOCK_102
  1

  0
LWPOLYLINE
  5
3AD
330
3A9
100
AcDbEntity
  8
VALLEYLINE
  6
AI-LINETYPE-77
 62
     7
100
AcDbPolyline
 90
        2
 70
     0
 43
0.0
 10
159.2247341181799
 20
-166.7794840077843
 10
168.2415825317243
 20
-169.2151665158559
  0
ENDBLK
  5
3AC
330
3A9
100
AcDbEntity
  8
0
100
AcDbBlockEnd
  0
BLOCK
  5
3B4
330
3B2
100
AcDbEntity
  8
0
100
AcDbBlockBegin
  2
BLOCK_103
 70
     0
 10
0.0
 20
0.0
 30
0.0
  3
BLOCK_103
  1

  0
LWPOLYLINE
  5
3B6
330
3B2
100
AcDbEntity
  8
VALLEYLINE
  6
AI-LINETYPE-78
 62
     7
100
AcDbPolyline
 90
        2
 70
     0
 43
0.0
 10
149.9746527402841
 20
-152.6442572318041
 10
159.2247341181799
 20
-166.7794840077843
  0
ENDBLK
  5
3B5
330
3B2
100
AcDbEntity
  8
0
100
AcDbBlockEnd
  0
BLOCK
  5
3BD
330
3BB
100
AcDbEntity
  8
0
100
AcDbBlockBegin
  2
BLOCK_104
 70
     0
 10
0.0
 20
0.0
 30
0.0
  3
BLOCK_104
  1

  0
LWPOLYLINE
  5
3BF
330
3BB
100
AcDbEntity
  8
VALLEYLINE
  6
AI-LINETYPE-79
 62
     7
100
AcDbPolyline
 90
        2
 70
     0
 43
0.0
 10
159.2247341181799
 20
-166.7794840077843
 10
144.1148898294227
 20
-174.3332003687431
  0
ENDBLK
  5
3BE
330
3BB
100
AcDbEntity
  8
0
100
AcDbBlockEnd
  0
BLOCK
  5
3C6
330
3C4
100
AcDbEntity
  8
0
100
AcDbBlockBegin
  2
BLOCK_105
 70
     0
 10
0.0
 20
0.0
 30
0.0
  3
BLOCK_105
  1

  0
LWPOLYLINE
  5
3C8
330
3C4
100
AcDbEntity
  8
VALLEYLINE
  6
AI-LINETYPE-80
 62
     7
100
AcDbPolyline
 90
        2
 70
     0
 43
0.0
 10
145.0609130496723
 20
-191.1996988454293
 10
159.9867892395172
 20
-206.1820746012323
  0
ENDBLK
  5
3C7
330
3C4
100
AcDbEntity
  8
0
100
AcDbBlockEnd
  0
BLOCK
  5
3CF
330
3CD
100
AcDbEntity
  8
0
100
AcDbBlockBegin
  2
BLOCK_106
 70
     0
 10
0.0
 20
0.0
 30
0.0
  3
BLOCK_106
  1

  0
LWPOLYLINE
  5
3D1
330
3CD
100
AcDbEntity
  8
VALLEYLINE
  6
AI-LINETYPE-81
 62
     7
100
AcDbPolyline
 90
        2
 70
     0
 43
0.0
 10
144.1148898294227
 20
-174.3332003687431
 10
145.0609130496723
 20
-191.1996988454293
  0
ENDBLK
  5
3D0
330
3CD
100
AcDbEntity
  8
0
100
AcDbBlockEnd
  0
BLOCK
  5
3D8
330
3D6
100
AcDbEntity
  8
0
100
AcDbBlockBegin
  2
BLOCK_107
 70
     0
 10
0.0
 20
0.0
 30
0.0
  3
BLOCK_107
  1

  0
LWPOLYLINE
  5
3DA
330
3D6
100
AcDbEntity
  8
VALLEYLINE
  6
AI-LINETYPE-82
 62
     7
100
AcDbPolyline
 90
        2
 70
     0
 43
0.0
 10
146.7431531751198
 20
-152.6373670408337
 10
149.9746527402841
 20
-152.6442572318041
  0
ENDBLK
  5
3D9
330
3D6
100
AcDbEntity
  8
0
100
AcDbBlockEnd
  0
BLOCK
  5
3E1
330
3DF
100
AcDbEntity
  8
0
100
AcDbBlockBegin
  2
BLOCK_108
 70
     0
 10
0.0
 20
0.0
 30
0.0
  3
BLOCK_108
  1

  0
LWPOLYLINE
  5
3E3
330
3DF
100
AcDbEntity
  8
VALLEYLINE
  6
AI-LINETYPE-83
 62
     7
100
AcDbPolyline
 90
        2
 70
     0
 43
0.0
 10
137.6653265714864
 20
-170.5928602004074
 10
144.1148898294227
 20
-174.3332003687431
  0
ENDBLK
  5
3E2
330
3DF
100
AcDbEntity
  8
0
100
AcDbBlockEnd
  0
BLOCK
  5
3EA
330
3E8
100
AcDbEntity
  8
0
100
AcDbBlockBegin
  2
BLOCK_109
 70
     0
 10
0.0
 20
0.0
 30
0.0
  3
BLOCK_109
  1

  0
LWPOLYLINE
  5
3EC
330
3E8
100
AcDbEntity
  8
VALLEYLINE
  6
AI-LINETYPE-84
 62
     7
100
AcDbPolyline
 90
        2
 70
     0
 43
0.0
 10
123.200404157568
 20
-181.4986544685142
 10
128.1982041780199
 20
-190.190285868251
  0
ENDBLK
  5
3EB
330
3E8
100
AcDbEntity
  8
0
100
AcDbBlockEnd
  0
BLOCK
  5
3F3
330
3F1
100
AcDbEntity
  8
0
100
AcDbBlockBegin
  2
BLOCK_110
 70
     0
 10
0.0
 20
0.0
 30
0.0
  3
BLOCK_110
  1

  0
LWPOLYLINE
  5
3F5
330
3F1
100
AcDbEntity
  8
VALLEYLINE
  6
AI-LINETYPE-85
 62
     7
100
AcDbPolyline
 90
        2
 70
     0
 43
0.0
 10
128.1982041780199
 20
-190.190285868251
 10
145.0609130496723
 20
-191.1996988454293
  0
ENDBLK
  5
3F4
330
3F1
100
AcDbEntity
  8
0
100
AcDbBlockEnd
  0
BLOCK
  5
3FC
330
3FA
100
AcDbEntity
  8
0
100
AcDbBlockBegin
  2
BLOCK_111
 70
     0
 10
0.0
 20
0.0
 30
0.0
  3
BLOCK_111
  1

  0
LWPOLYLINE
  5
3FE
330
3FA
100
AcDbEntity
  8
VALLEYLINE
  6
AI-LINETYPE-86
 62
     7
100
AcDbPolyline
 90
        2
 70
     0
 43
0.0
 10
120.587299232006
 20
-205.2708468453837
 10
128.1982041780199
 20
-190.190285868251
  0
ENDBLK
  5
3FD
330
3FA
100
AcDbEntity
  8
0
100
AcDbBlockEnd
  0
BLOCK
  5
405
330
403
100
AcDbEntity
  8
0
100
AcDbBlockBegin
  2
BLOCK_112
 70
     0
 10
0.0
 20
0.0
 30
0.0
  3
BLOCK_112
  1

  0
LWPOLYLINE
  5
407
330
403
100
AcDbEntity
  8
VALLEYLINE
  6
AI-LINETYPE-87
 62
     7
100
AcDbPolyline
 90
        2
 70
     0
 43
0.0
 10
106.3842040749664
 20
-195.795800732301
 10
120.5866102129089
 20
-205.2715358644807
  0
ENDBLK
  5
406
330
403
100
AcDbEntity
  8
0
100
AcDbBlockEnd
  0
BLOCK
  5
40F
330
40D
100
AcDbEntity
  8
0
100
AcDbBlockBegin
  2
BLOCK_113
 70
     0
 10
0.0
 20
0.0
 30
0.0
  3
BLOCK_113
  1

  0
LWPOLYLINE
  5
411
330
40D
100
AcDbEntity
  8
MOUNTAINLINE
 62
     7
100
AcDbPolyline
 90
        2
 70
     0
 43
0.0
 10
84.49682343807719
 20
-234.3753580143228
 10
100.828298585904
 20
-218.8696722543104
  0
ENDBLK
  5
410
330
40D
100
AcDbEntity
  8
0
100
AcDbBlockEnd
  0
BLOCK
  5
417
330
415
100
AcDbEntity
  8
0
100
AcDbBlockBegin
  2
BLOCK_114
 70
     0
 10
0.0
 20
0.0
 30
0.0
  3
BLOCK_114
  1

  0
LWPOLYLINE
  5
419
330
415
100
AcDbEntity
  8
MOUNTAINLINE
 62
     7
100
AcDbPolyline
 90
        2
 70
     0
 43
0.0
 10
100.828298585904
 20
-218.8696722543104
 10
106.4582736278993
 20
-213.5242620993967
  0
ENDBLK
  5
418
330
415
100
AcDbEntity
  8
0
100
AcDbBlockEnd
  0
BLOCK
  5
41F
330
41D
100
AcDbEntity
  8
0
100
AcDbBlockBegin
  2
BLOCK_115
 70
     0
 10
0.0
 20
0.0
 30
0.0
  3
BLOCK_115
  1

  0
LWPOLYLINE
  5
421
330
41D
100
AcDbEntity
  8
MOUNTAINLINE
 62
     7
100
AcDbPolyline
 90
        2
 70
     0
 43
0.0
 10
106.4579291183508
 20
-213.5249511184938
 10
106.4865234108784
 20
-195.967021977918
  0
ENDBLK
  5
420
330
41D
100
AcDbEntity
  8
0
100
AcDbBlockEnd
  0
BLOCK
  5
427
330
425
100
AcDbEntity
  8
0
100
AcDbBlockBegin
  2
BLOCK_116
 70
     0
 10
0.0
 20
0.0
 30
0.0
  3
BLOCK_116
  1

  0
LWPOLYLINE
  5
429
330
425
100
AcDbEntity
  8
MOUNTAINLINE
 62
     7
100
AcDbPolyline
 90
        2
 70
     0
 43
0.0
 10
106.4582736278993
 20
-213.5242620993967
 10
123.8418809369215
 20
-230.137546057917
  0
ENDBLK
  5
428
330
425
100
AcDbEntity
  8
0
100
AcDbBlockEnd
  0
BLOCK
  5
42F
330
42D
100
AcDbEntity
  8
0
100
AcDbBlockBegin
  2
BLOCK_117
 70
     0
 10
0.0
 20
0.0
 30
0.0
  3
BLOCK_117
  1

  0
LWPOLYLINE
  5
431
330
42D
100
AcDbEntity
  8
MOUNTAINLINE
 62
     7
100
AcDbPolyline
 90
        2
 70
     0
 43
0.0
 10
123.8418809369215
 20
-230.137546057917
 10
128.3515109271135
 20
-234.4473605099646
  0
ENDBLK
  5
430
330
42D
100
AcDbEntity
  8
0
100
AcDbBlockEnd
  0
BLOCK
  5
437
330
435
100
AcDbEntity
  8
0
100
AcDbBlockBegin
  2
BLOCK_118
 70
     0
 10
0.0
 20
0.0
 30
0.0
  3
BLOCK_118
  1

  0
LWPOLYLINE
  5
439
330
435
100
AcDbEntity
  8
MOUNTAINLINE
 62
     7
100
AcDbPolyline
 90
        2
 70
     0
 43
0.0
 10
84.79447968800277
 20
-190.1189723917064
 10
77.20097247418934
 20
-203.2261826748879
  0
ENDBLK
  5
438
330
435
100
AcDbEntity
  8
0
100
AcDbBlockEnd
  0
BLOCK
  5
43F
330
43D
100
AcDbEntity
  8
0
100
AcDbBlockBegin
  2
BLOCK_119
 70
     0
 10
0.0
 20
0.0
 30
0.0
  3
BLOCK_119
  1

  0
LWPOLYLINE
  5
441
330
43D
100
AcDbEntity
  8
MOUNTAINLINE
 62
     7
100
AcDbPolyline
 90
        2
 70
     0
 43
0.0
 10
77.20097247418934
 20
-203.2261826748879
 10
82.8104491980474
 20
-227.1747639406022
  0
ENDBLK
  5
440
330
43D
100
AcDbEntity
  8
0
100
AcDbBlockEnd
  0
BLOCK
  5
447
330
445
100
AcDbEntity
  8
0
100
AcDbBlockBegin
  2
BLOCK_120
 70
     0
 10
0.0
 20
0.0
 30
0.0
  3
BLOCK_120
  1

  0
LWPOLYLINE
  5
449
330
445
100
AcDbEntity
  8
MOUNTAINLINE
 62
     7
100
AcDbPolyline
 90
        2
 70
     0
 43
0.0
 10
82.8104491980474
 20
-227.1747639406022
 10
84.49734020239997
 20
-234.3753580143228
  0
ENDBLK
  5
448
330
445
100
AcDbEntity
  8
0
100
AcDbBlockEnd
  0
BLOCK
  5
44F
330
44D
100
AcDbEntity
  8
0
100
AcDbBlockBegin
  2
BLOCK_121
 70
     0
 10
0.0
 20
0.0
 30
0.0
  3
BLOCK_121
  1

  0
LWPOLYLINE
  5
451
330
44D
100
AcDbEntity
  8
MOUNTAINLINE
 62
     7
100
AcDbPolyline
 90
        2
 70
     0
 43
0.0
 10
52.9533569203554
 20
-206.0070637505816
 10
68.35293373942218
 20
-204.2404187857454
  0
ENDBLK
  5
450
330
44D
100
AcDbEntity
  8
0
100
AcDbBlockEnd
  0
BLOCK
  5
457
330
455
100
AcDbEntity
  8
0
100
AcDbBlockBegin
  2
BLOCK_122
 70
     0
 10
0.0
 20
0.0
 30
0.0
  3
BLOCK_122
  1

  0
LWPOLYLINE
  5
459
330
455
100
AcDbEntity
  8
MOUNTAINLINE
 62
     7
100
AcDbPolyline
 90
        2
 70
     0
 43
0.0
 10
68.35293373942218
 20
-204.2404187857454
 10
77.20097247418934
 20
-203.2261826748879
  0
ENDBLK
  5
458
330
455
100
AcDbEntity
  8
0
100
AcDbBlockEnd
  0
BLOCK
  5
45F
330
45D
100
AcDbEntity
  8
0
100
AcDbBlockBegin
  2
BLOCK_123
 70
     0
 10
0.0
 20
0.0
 30
0.0
  3
BLOCK_123
  1

  0
LWPOLYLINE
  5
461
330
45D
100
AcDbEntity
  8
MOUNTAINLINE
 62
     7
100
AcDbPolyline
 90
        2
 70
     0
 43
0.0
 10
68.92929821410447
 20
-174.2105549694682
 10
60.74702418186186
 20
-178.9200004978047
  0
ENDBLK
  5
460
330
45D
100
AcDbEntity
  8
0
100
AcDbBlockEnd
  0
BLOCK
  5
467
330
465
100
AcDbEntity
  8
0
100
AcDbBlockBegin
  2
BLOCK_124
 70
     0
 10
0.0
 20
0.0
 30
0.0
  3
BLOCK_124
  1

  0
LWPOLYLINE
  5
469
330
465
100
AcDbEntity
  8
MOUNTAINLINE
 62
     7
100
AcDbPolyline
 90
        2
 70
     0
 43
0.0
 10
60.74702418186186
 20
-178.9200004978047
 10
56.69094101230296
 20
-193.015953185253
  0
ENDBLK
  5
468
330
465
100
AcDbEntity
  8
0
100
AcDbBlockEnd
  0
BLOCK
  5
46F
330
46D
100
AcDbEntity
  8
0
100
AcDbBlockBegin
  2
BLOCK_125
 70
     0
 10
0.0
 20
0.0
 30
0.0
  3
BLOCK_125
  1

  0
LWPOLYLINE
  5
471
330
46D
100
AcDbEntity
  8
MOUNTAINLINE
 62
     7
100
AcDbPolyline
 90
        2
 70
     0
 43
0.0
 10
56.69094101230296
 20
-193.015953185253
 10
52.9533569203554
 20
-206.0070637505816
  0
ENDBLK
  5
470
330
46D
100
AcDbEntity
  8
0
100
AcDbBlockEnd
  0
BLOCK
  5
477
330
475
100
AcDbEntity
  8
0
100
AcDbBlockBegin
  2
BLOCK_126
 70
     0
 10
0.0
 20
0.0
 30
0.0
  3
BLOCK_126
  1

  0
LWPOLYLINE
  5
479
330
475
100
AcDbEntity
  8
MOUNTAINLINE
 62
     7
100
AcDbPolyline
 90
        2
 70
     0
 43
0.0
 10
44.82000324400332
 20
-169.0129394108718
 10
50.62516139142356
 20
-172.6244330080592
  0
ENDBLK
  5
478
330
475
100
AcDbEntity
  8
0
100
AcDbBlockEnd
  0
BLOCK
  5
47F
330
47D
100
AcDbEntity
  8
0
100
AcDbBlockBegin
  2
BLOCK_127
 70
     0
 10
0.0
 20
0.0
 30
0.0
  3
BLOCK_127
  1

  0
LWPOLYLINE
  5
481
330
47D
100
AcDbEntity
  8
MOUNTAINLINE
 62
     7
100
AcDbPolyline
 90
        2
 70
     0
 43
0.0
 10
50.62516139142356
 20
-172.6244330080592
 10
60.74702418186186
 20
-178.9200004978047
  0
ENDBLK
  5
480
330
47D
100
AcDbEntity
  8
0
100
AcDbBlockEnd
  0
BLOCK
  5
487
330
485
100
AcDbEntity
  8
0
100
AcDbBlockBegin
  2
BLOCK_128
 70
     0
 10
0.0
 20
0.0
 30
0.0
  3
BLOCK_128
  1

  0
LWPOLYLINE
  5
489
330
485
100
AcDbEntity
  8
MOUNTAINLINE
 62
     7
100
AcDbPolyline
 90
        2
 70
     0
 43
0.0
 10
63.14050427023918
 20
-152.5016302787149
 10
59.90866019552631
 20
-152.4985296927782
  0
ENDBLK
  5
488
330
485
100
AcDbEntity
  8
0
100
AcDbBlockEnd
  0
BLOCK
  5
48F
330
48D
100
AcDbEntity
  8
0
100
AcDbBlockBegin
  2
BLOCK_129
 70
     0
 10
0.0
 20
0.0
 30
0.0
  3
BLOCK_129
  1

  0
LWPOLYLINE
  5
491
330
48D
100
AcDbEntity
  8
MOUNTAINLINE
 62
     7
100
AcDbPolyline
 90
        2
 70
     0
 43
0.0
 10
59.90866019552631
 20
-152.4985296927782
 10
57.09763453433671
 20
-155.5746554515577
  0
ENDBLK
  5
490
330
48D
100
AcDbEntity
  8
0
100
AcDbBlockEnd
  0
BLOCK
  5
497
330
495
100
AcDbEntity
  8
0
100
AcDbBlockBegin
  2
BLOCK_130
 70
     0
 10
0.0
 20
0.0
 30
0.0
  3
BLOCK_130
  1

  0
LWPOLYLINE
  5
499
330
495
100
AcDbEntity
  8
MOUNTAINLINE
 62
     7
100
AcDbPolyline
 90
        2
 70
     0
 43
0.0
 10
57.09763453433671
 20
-155.5746554515577
 10
44.82000324400332
 20
-169.0129394108718
  0
ENDBLK
  5
498
330
495
100
AcDbEntity
  8
0
100
AcDbBlockEnd
  0
BLOCK
  5
49F
330
49D
100
AcDbEntity
  8
0
100
AcDbBlockBegin
  2
BLOCK_131
 70
     0
 10
0.0
 20
0.0
 30
0.0
  3
BLOCK_131
  1

  0
LWPOLYLINE
  5
4A1
330
49D
100
AcDbEntity
  8
MOUNTAINLINE
 62
     7
100
AcDbPolyline
 90
        2
 70
     0
 43
0.0
 10
54.79303790947883
 20
-139.7744140275564
 10
59.90866019552631
 20
-152.4985296927782
  0
ENDBLK
  5
4A0
330
49D
100
AcDbEntity
  8
0
100
AcDbBlockEnd
  0
BLOCK
  5
4A7
330
4A5
100
AcDbEntity
  8
0
100
AcDbBlockBegin
  2
BLOCK_132
 70
     0
 10
0.0
 20
0.0
 30
0.0
  3
BLOCK_132
  1

  0
LWPOLYLINE
  5
4A9
330
4A5
100
AcDbEntity
  8
MOUNTAINLINE
 62
     7
100
AcDbPolyline
 90
        2
 70
     0
 43
0.0
 10
66.37252059972631
 20
-152.5050753742001
 10
54.79321016425309
 20
-139.7744140275564
  0
ENDBLK
  5
4A8
330
4A5
100
AcDbEntity
  8
0
100
AcDbBlockEnd
  0
BLOCK
  5
4AF
330
4AD
100
AcDbEntity
  8
0
100
AcDbBlockBegin
  2
BLOCK_133
 70
     0
 10
0.0
 20
0.0
 30
0.0
  3
BLOCK_133
  1

  0
LWPOLYLINE
  5
4B1
330
4AD
100
AcDbEntity
  8
MOUNTAINLINE
 62
     7
100
AcDbPolyline
 90
        2
 70
     0
 43
0.0
 10
53.84460312238953
 20
-166.6068847239733
 10
61.49168157099861
 20
-164.5673881967054
  0
ENDBLK
  5
4B0
330
4AD
100
AcDbEntity
  8
0
100
AcDbBlockEnd
  0
BLOCK
  5
4B7
330
4B5
100
AcDbEntity
  8
0
100
AcDbBlockBegin
  2
BLOCK_134
 70
     0
 10
0.0
 20
0.0
 30
0.0
  3
BLOCK_134
  1

  0
LWPOLYLINE
  5
4B9
330
4B5
100
AcDbEntity
  8
MOUNTAINLINE
 62
     7
100
AcDbPolyline
 90
        2
 70
     0
 43
0.0
 10
61.49168157099861
 20
-164.5673881967054
 10
66.37252059972631
 20
-152.5050753742001
  0
ENDBLK
  5
4B8
330
4B5
100
AcDbEntity
  8
0
100
AcDbBlockEnd
  0
BLOCK
  5
4BF
330
4BD
100
AcDbEntity
  8
0
100
AcDbBlockBegin
  2
BLOCK_135
 70
     0
 10
0.0
 20
0.0
 30
0.0
  3
BLOCK_135
  1

  0
LWPOLYLINE
  5
4C1
330
4BD
100
AcDbEntity
  8
MOUNTAINLINE
 62
     7
100
AcDbPolyline
 90
        2
 70
     0
 43
0.0
 10
75.39160832533612
 20
-170.4901963549469
 10
61.49168157099861
 20
-164.5673881967054
  0
ENDBLK
  5
4C0
330
4BD
100
AcDbEntity
  8
0
100
AcDbBlockEnd
  0
BLOCK
  5
4C7
330
4C5
100
AcDbEntity
  8
0
100
AcDbBlockBegin
  2
BLOCK_136
 70
     0
 10
0.0
 20
0.0
 30
0.0
  3
BLOCK_136
  1

  0
LWPOLYLINE
  5
4C9
330
4C5
100
AcDbEntity
  8
MOUNTAINLINE
 62
     7
100
AcDbPolyline
 90
        2
 70
     0
 43
0.0
 10
67.92832572086514
 20
-191.0732638411206
 10
77.38786890426415
 20
-181.6395588738609
  0
ENDBLK
  5
4C8
330
4C5
100
AcDbEntity
  8
0
100
AcDbBlockEnd
  0
BLOCK
  5
4CF
330
4CD
100
AcDbEntity
  8
0
100
AcDbBlockBegin
  2
BLOCK_137
 70
     0
 10
0.0
 20
0.0
 30
0.0
  3
BLOCK_137
  1

  0
LWPOLYLINE
  5
4D1
330
4CD
100
AcDbEntity
  8
MOUNTAINLINE
 62
     7
100
AcDbPolyline
 90
        2
 70
     0
 43
0.0
 10
77.38786890426415
 20
-181.6395588738609
 10
75.39160832533612
 20
-170.4901963549469
  0
ENDBLK
  5
4D0
330
4CD
100
AcDbEntity
  8
0
100
AcDbBlockEnd
  0
BLOCK
  5
4D7
330
4D5
100
AcDbEntity
  8
0
100
AcDbBlockBegin
  2
BLOCK_138
 70
     0
 10
0.0
 20
0.0
 30
0.0
  3
BLOCK_138
  1

  0
LWPOLYLINE
  5
4D9
330
4D5
100
AcDbEntity
  8
MOUNTAINLINE
 62
     7
100
AcDbPolyline
 90
        2
 70
     0
 43
0.0
 10
89.81966821756245
 20
-181.4435329407502
 10
77.38786890426415
 20
-181.6395588738609
  0
ENDBLK
  5
4D8
330
4D5
100
AcDbEntity
  8
0
100
AcDbBlockEnd
  0
BLOCK
  5
4DF
330
4DD
100
AcDbEntity
  8
0
100
AcDbBlockBegin
  2
BLOCK_139
 70
     0
 10
0.0
 20
0.0
 30
0.0
  3
BLOCK_139
  1

  0
LWPOLYLINE
  5
4E1
330
4DD
100
AcDbEntity
  8
MOUNTAINLINE
 62
     7
100
AcDbPolyline
 90
        2
 70
     0
 43
0.0
 10
92.35611976857763
 20
-205.2243380563328
 10
96.51090492378893
 20
-189.8137369317131
  0
ENDBLK
  5
4E0
330
4DD
100
AcDbEntity
  8
0
100
AcDbBlockEnd
  0
BLOCK
  5
4E7
330
4E5
100
AcDbEntity
  8
0
100
AcDbBlockBegin
  2
BLOCK_140
 70
     0
 10
0.0
 20
0.0
 30
0.0
  3
BLOCK_140
  1

  0
LWPOLYLINE
  5
4E9
330
4E5
100
AcDbEntity
  8
MOUNTAINLINE
 62
     7
100
AcDbPolyline
 90
        2
 70
     0
 43
0.0
 10
96.51090492378893
 20
-189.8137369317131
 10
89.81966821756245
 20
-181.4435329407502
  0
ENDBLK
  5
4E8
330
4E5
100
AcDbEntity
  8
0
100
AcDbBlockEnd
  0
BLOCK
  5
4EF
330
4ED
100
AcDbEntity
  8
0
100
AcDbBlockBegin
  2
BLOCK_141
 70
     0
 10
0.0
 20
0.0
 30
0.0
  3
BLOCK_141
  1

  0
LWPOLYLINE
  5
4F1
330
4ED
100
AcDbEntity
  8
MOUNTAINLINE
 62
     7
100
AcDbPolyline
 90
        2
 70
     0
 43
0.0
 10
106.5044379074017
 20
-185.0901665118871
 10
96.51090492378893
 20
-189.8137369317131
  0
ENDBLK
  5
4F0
330
4ED
100
AcDbEntity
  8
0
100
AcDbBlockEnd
  0
BLOCK
  5
4F7
330
4F5
100
AcDbEntity
  8
0
100
AcDbBlockBegin
  2
BLOCK_142
 70
     0
 10
0.0
 20
0.0
 30
0.0
  3
BLOCK_142
  1

  0
LWPOLYLINE
  5
4F9
330
4F5
100
AcDbEntity
  8
MOUNTAINLINE
 62
     7
100
AcDbPolyline
 90
        2
 70
     0
 43
0.0
 10
158.6776529551223
 20
-175.1204046871227
 10
152.2814886772074
 20
-179.0695176418646
  0
ENDBLK
  5
4F8
330
4F5
100
AcDbEntity
  8
0
100
AcDbBlockEnd
  0
BLOCK
  5
4FF
330
4FD
100
AcDbEntity
  8
0
100
AcDbBlockBegin
  2
BLOCK_143
 70
     0
 10
0.0
 20
0.0
 30
0.0
  3
BLOCK_143
  1

  0
LWPOLYLINE
  5
501
330
4FD
100
AcDbEntity
  8
MOUNTAINLINE
 62
     7
100
AcDbPolyline
 90
        2
 70
     0
 43
0.0
 10
168.2402044935301
 20
-169.2144774967589
 10
158.6776529551223
 20
-175.1204046871227
  0
ENDBLK
  5
500
330
4FD
100
AcDbEntity
  8
0
100
AcDbBlockEnd
  0
BLOCK
  5
507
330
505
100
AcDbEntity
  8
0
100
AcDbBlockBegin
  2
BLOCK_144
 70
     0
 10
0.0
 20
0.0
 30
0.0
  3
BLOCK_144
  1

  0
LWPOLYLINE
  5
509
330
505
100
AcDbEntity
  8
MOUNTAINLINE
 62
     7
100
AcDbPolyline
 90
        2
 70
     0
 43
0.0
 10
155.6342556034525
 20
-190.8638020356174
 10
159.9867892395172
 20
-206.1820746012323
  0
ENDBLK
  5
508
330
505
100
AcDbEntity
  8
0
100
AcDbBlockEnd
  0
BLOCK
  5
50F
330
50D
100
AcDbEntity
  8
0
100
AcDbBlockBegin
  2
BLOCK_145
 70
     0
 10
0.0
 20
0.0
 30
0.0
  3
BLOCK_145
  1

  0
LWPOLYLINE
  5
511
330
50D
100
AcDbEntity
  8
MOUNTAINLINE
 62
     7
100
AcDbPolyline
 90
        2
 70
     0
 43
0.0
 10
152.2814886772074
 20
-179.0695176418646
 10
155.6342556034525
 20
-190.8638020356174
  0
ENDBLK
  5
510
330
50D
100
AcDbEntity
  8
0
100
AcDbBlockEnd
  0
BLOCK
  5
517
330
515
100
AcDbEntity
  8
0
100
AcDbBlockBegin
  2
BLOCK_146
 70
     0
 10
0.0
 20
0.0
 30
0.0
  3
BLOCK_146
  1

  0
LWPOLYLINE
  5
519
330
515
100
AcDbEntity
  8
MOUNTAINLINE
 62
     7
100
AcDbPolyline
 90
        2
 70
     0
 43
0.0
 10
159.9867892395172
 20
-206.1813855821352
 10
173.3782199002318
 20
-219.623459146483
  0
ENDBLK
  5
518
330
515
100
AcDbEntity
  8
0
100
AcDbBlockEnd
  0
BLOCK
  5
51F
330
51D
100
AcDbEntity
  8
0
100
AcDbBlockBegin
  2
BLOCK_147
 70
     0
 10
0.0
 20
0.0
 30
0.0
  3
BLOCK_147
  1

  0
LWPOLYLINE
  5
521
330
51D
100
AcDbEntity
  8
MOUNTAINLINE
 62
     7
100
AcDbPolyline
 90
        2
 70
     0
 43
0.0
 10
151.1435736384294
 20
-205.1385551787501
 10
135.7484754434934
 20
-203.3216118198293
  0
ENDBLK
  5
520
330
51D
100
AcDbEntity
  8
0
100
AcDbBlockEnd
  0
BLOCK
  5
527
330
525
100
AcDbEntity
  8
0
100
AcDbBlockBegin
  2
BLOCK_148
 70
     0
 10
0.0
 20
0.0
 30
0.0
  3
BLOCK_148
  1

  0
LWPOLYLINE
  5
529
330
525
100
AcDbEntity
  8
MOUNTAINLINE
 62
     7
100
AcDbPolyline
 90
        2
 70
     0
 43
0.0
 10
159.9867892395172
 20
-206.1820746012323
 10
151.1435736384294
 20
-205.1385551787501
  0
ENDBLK
  5
528
330
525
100
AcDbEntity
  8
0
100
AcDbBlockEnd
  0
BLOCK
  5
52F
330
52D
100
AcDbEntity
  8
0
100
AcDbBlockBegin
  2
BLOCK_149
 70
     0
 10
0.0
 20
0.0
 30
0.0
  3
BLOCK_149
  1

  0
LWPOLYLINE
  5
531
330
52D
100
AcDbEntity
  8
MOUNTAINLINE
 62
     7
100
AcDbPolyline
 90
        2
 70
     0
 43
0.0
 10
133.625263095934
 20
-212.2543999035336
 10
128.3508219080164
 20
-234.4466714908675
  0
ENDBLK
  5
530
330
52D
100
AcDbEntity
  8
0
100
AcDbBlockEnd
  0
BLOCK
  5
537
330
535
100
AcDbEntity
  8
0
100
AcDbBlockBegin
  2
BLOCK_150
 70
     0
 10
0.0
 20
0.0
 30
0.0
  3
BLOCK_150
  1

  0
LWPOLYLINE
  5
539
330
535
100
AcDbEntity
  8
MOUNTAINLINE
 62
     7
100
AcDbPolyline
 90
        2
 70
     0
 43
0.0
 10
135.7484754434934
 20
-203.3216118198293
 10
133.625263095934
 20
-212.2543999035336
  0
ENDBLK
  5
538
330
535
100
AcDbEntity
  8
0
100
AcDbBlockEnd
  0
BLOCK
  5
53F
330
53D
100
AcDbEntity
  8
0
100
AcDbBlockBegin
  2
BLOCK_151
 70
     0
 10
0.0
 20
0.0
 30
0.0
  3
BLOCK_151
  1

  0
LWPOLYLINE
  5
541
330
53D
100
AcDbEntity
  8
MOUNTAINLINE
 62
     7
100
AcDbPolyline
 90
        2
 70
     0
 43
0.0
 10
128.3515109271135
 20
-234.4466714908675
 10
130.9046711912322
 20
-244.043673984128
  0
ENDBLK
  5
540
330
53D
100
AcDbEntity
  8
0
100
AcDbBlockEnd
  0
BLOCK
  5
547
330
545
100
AcDbEntity
  8
0
100
AcDbBlockBegin
  2
BLOCK_152
 70
     0
 10
0.0
 20
0.0
 30
0.0
  3
BLOCK_152
  1

  0
LWPOLYLINE
  5
549
330
545
100
AcDbEntity
  8
MOUNTAINLINE
 62
     7
100
AcDbPolyline
 90
        2
 70
     0
 43
0.0
 10
84.49734020239997
 20
-234.3753580143228
 10
81.91196829549424
 20
-243.9640922784187
  0
ENDBLK
  5
548
330
545
100
AcDbEntity
  8
0
100
AcDbBlockEnd
  0
BLOCK
  5
54F
330
54D
100
AcDbEntity
  8
0
100
AcDbBlockBegin
  2
BLOCK_153
 70
     0
 10
0.0
 20
0.0
 30
0.0
  3
BLOCK_153
  1

  0
LWPOLYLINE
  5
551
330
54D
100
AcDbEntity
  8
MOUNTAINLINE
 62
     7
100
AcDbPolyline
 90
        2
 70
     0
 43
0.0
 10
52.9533569203554
 20
-206.0070637505816
 10
39.51800129220383
 20
-219.4053846022667
  0
ENDBLK
  5
550
330
54D
100
AcDbEntity
  8
0
100
AcDbBlockEnd
  0
BLOCK
  5
557
330
555
100
AcDbEntity
  8
0
100
AcDbBlockBegin
  2
BLOCK_154
 70
     0
 10
0.0
 20
0.0
 30
0.0
  3
BLOCK_154
  1

  0
LWPOLYLINE
  5
559
330
555
100
AcDbEntity
  8
MOUNTAINLINE
 62
     7
100
AcDbPolyline
 90
        2
 70
     0
 43
0.0
 10
44.81983098922907
 20
-169.0129394108718
 10
15.07591009822755
 20
-176.944238237014
  0
ENDBLK
  5
558
330
555
100
AcDbEntity
  8
0
100
AcDbBlockEnd
  0
BLOCK
  5
55F
330
55D
100
AcDbEntity
  8
0
100
AcDbBlockBegin
  2
BLOCK_155
 70
     0
 10
0.0
 20
0.0
 30
0.0
  3
BLOCK_155
  1

  0
LWPOLYLINE
  5
561
330
55D
100
AcDbEntity
  8
MOUNTAINLINE
 62
     7
100
AcDbPolyline
 90
        2
 70
     0
 43
0.0
 10
154.0457220752039
 20
-150.5293131134094
 10
153.2058077958999
 20
-152.6032605955297
  0
ENDBLK
  5
560
330
55D
100
AcDbEntity
  8
0
100
AcDbBlockEnd
  0
BLOCK
  5
567
330
565
100
AcDbEntity
  8
0
100
AcDbBlockBegin
  2
BLOCK_156
 70
     0
 10
0.0
 20
0.0
 30
0.0
  3
BLOCK_156
  1

  0
LWPOLYLINE
  5
569
330
565
100
AcDbEntity
  8
MOUNTAINLINE
 62
     7
100
AcDbPolyline
 90
        2
 70
     0
 43
0.0
 10
159.2705538881337
 20
-138.4949055643346
 10
158.357259074994
 20
-139.9180745092913
  0
ENDBLK
  5
568
330
565
100
AcDbEntity
  8
0
100
AcDbBlockEnd
  0
BLOCK
  5
56F
330
56D
100
AcDbEntity
  8
0
100
AcDbBlockBegin
  2
BLOCK_157
 70
     0
 10
0.0
 20
0.0
 30
0.0
  3
BLOCK_157
  1

  0
LWPOLYLINE
  5
571
330
56D
100
AcDbEntity
  8
MOUNTAINLINE
 62
     7
100
AcDbPolyline
 90
        2
 70
     0
 43
0.0
 10
158.357259074994
 20
-139.9180745092913
 10
154.0457220752039
 20
-150.5293131134094
  0
ENDBLK
  5
570
330
56D
100
AcDbEntity
  8
0
100
AcDbBlockEnd
  0
BLOCK
  5
577
330
575
100
AcDbEntity
  8
0
100
AcDbBlockBegin
  2
BLOCK_158
 70
     0
 10
0.0
 20
0.0
 30
0.0
  3
BLOCK_158
  1

  0
LWPOLYLINE
  5
579
330
575
100
AcDbEntity
  8
MOUNTAINLINE
 62
     7
100
AcDbPolyline
 90
        2
 70
     0
 43
0.0
 10
198.0140977152534
 20
-128.0633286897724
 10
159.2557399775472
 20
-138.4404730556677
  0
ENDBLK
  5
578
330
575
100
AcDbEntity
  8
0
100
AcDbBlockEnd
  0
BLOCK
  5
57F
330
57D
100
AcDbEntity
  8
0
100
AcDbBlockBegin
  2
BLOCK_159
 70
     0
 10
0.0
 20
0.0
 30
0.0
  3
BLOCK_159
  1

  0
LWPOLYLINE
  5
581
330
57D
100
AcDbEntity
  8
MOUNTAINLINE
 62
     7
100
AcDbPolyline
 90
        2
 70
     0
 43
0.0
 10
153.2058077958999
 20
-152.6032605955297
 10
163.5903591170885
 20
-164.0203070336477
  0
ENDBLK
  5
580
330
57D
100
AcDbEntity
  8
0
100
AcDbBlockEnd
  0
BLOCK
  5
587
330
585
100
AcDbEntity
  8
0
100
AcDbBlockBegin
  2
BLOCK_160
 70
     0
 10
0.0
 20
0.0
 30
0.0
  3
BLOCK_160
  1

  0
LWPOLYLINE
  5
589
330
585
100
AcDbEntity
  8
MOUNTAINLINE
 62
     7
100
AcDbPolyline
 90
        2
 70
     0
 43
0.0
 10
144.1855142868703
 20
-130.8910630640654
 10
159.2705538881337
 20
-138.4949055643346
  0
ENDBLK
  5
588
330
585
100
AcDbEntity
  8
0
100
AcDbBlockEnd
  0
BLOCK
  5
58F
330
58D
100
AcDbEntity
  8
0
100
AcDbBlockBegin
  2
BLOCK_161
 70
     0
 10
0.0
 20
0.0
 30
0.0
  3
BLOCK_161
  1

  0
LWPOLYLINE
  5
591
330
58D
100
AcDbEntity
  8
MOUNTAINLINE
 62
     7
100
AcDbPolyline
 90
        2
 70
     0
 43
0.0
 10
173.5284260633886
 20
-85.62715926678766
 10
145.1870035444324
 20
-114.027665173316
  0
ENDBLK
  5
590
330
58D
100
AcDbEntity
  8
0
100
AcDbBlockEnd
  0
BLOCK
  5
597
330
595
100
AcDbEntity
  8
0
100
AcDbBlockBegin
  2
BLOCK_162
 70
     0
 10
0.0
 20
0.0
 30
0.0
  3
BLOCK_162
  1

  0
LWPOLYLINE
  5
599
330
595
100
AcDbEntity
  8
MOUNTAINLINE
 62
     7
100
AcDbPolyline
 90
        2
 70
     0
 43
0.0
 10
145.1870035444324
 20
-114.027665173316
 10
144.1855142868703
 20
-130.8910630640654
  0
ENDBLK
  5
598
330
595
100
AcDbEntity
  8
0
100
AcDbBlockEnd
  0
BLOCK
  5
59F
330
59D
100
AcDbEntity
  8
0
100
AcDbBlockBegin
  2
BLOCK_163
 70
     0
 10
0.0
 20
0.0
 30
0.0
  3
BLOCK_163
  1

  0
LWPOLYLINE
  5
5A1
330
59D
100
AcDbEntity
  8
MOUNTAINLINE
 62
     7
100
AcDbPolyline
 90
        2
 70
     0
 43
0.0
 10
128.3211940868433
 20
-114.9826456418273
 10
145.1870035444324
 20
-114.027665173316
  0
ENDBLK
  5
5A0
330
59D
100
AcDbEntity
  8
0
100
AcDbBlockEnd
  0
BLOCK
  5
5A7
330
5A5
100
AcDbEntity
  8
0
100
AcDbBlockBegin
  2
BLOCK_164
 70
     0
 10
0.0
 20
0.0
 30
0.0
  3
BLOCK_164
  1

  0
LWPOLYLINE
  5
5A9
330
5A5
100
AcDbEntity
  8
MOUNTAINLINE
 62
     7
100
AcDbPolyline
 90
        2
 70
     0
 43
0.0
 10
131.1099988821531
 20
-61.11134302942703
 10
120.759898515817
 20
-99.8764187033295
  0
ENDBLK
  5
5A8
330
5A5
100
AcDbEntity
  8
0
100
AcDbBlockEnd
  0
BLOCK
  5
5AF
330
5AD
100
AcDbEntity
  8
0
100
AcDbBlockBegin
  2
BLOCK_165
 70
     0
 10
0.0
 20
0.0
 30
0.0
  3
BLOCK_165
  1

  0
LWPOLYLINE
  5
5B1
330
5AD
100
AcDbEntity
  8
MOUNTAINLINE
 62
     7
100
AcDbPolyline
 90
        2
 70
     0
 43
0.0
 10
120.759898515817
 20
-99.8764187033295
 10
128.3211940868433
 20
-114.9826456418273
  0
ENDBLK
  5
5B0
330
5AD
100
AcDbEntity
  8
0
100
AcDbBlockEnd
  0
BLOCK
  5
5B7
330
5B5
100
AcDbEntity
  8
0
100
AcDbBlockBegin
  2
BLOCK_166
 70
     0
 10
0.0
 20
0.0
 30
0.0
  3
BLOCK_166
  1

  0
LWPOLYLINE
  5
5B9
330
5B5
100
AcDbEntity
  8
MOUNTAINLINE
 62
     7
100
AcDbPolyline
 90
        2
 70
     0
 43
0.0
 10
106.5843641226595
 20
-109.1335625269701
 10
120.732337751935
 20
-99.86918400281048
  0
ENDBLK
  5
5B8
330
5B5
100
AcDbEntity
  8
0
100
AcDbBlockEnd
  0
BLOCK
  5
5BF
330
5BD
100
AcDbEntity
  8
0
100
AcDbBlockBegin
  2
BLOCK_167
 70
     0
 10
0.0
 20
0.0
 30
0.0
  3
BLOCK_167
  1

  0
LWPOLYLINE
  5
5C1
330
5BD
100
AcDbEntity
  8
MOUNTAINLINE
 62
     7
100
AcDbPolyline
 90
        2
 70
     0
 43
0.0
 10
82.11677922209233
 20
-61.08171520825388
 10
92.47463105327023
 20
-99.84472382486522
  0
ENDBLK
  5
5C0
330
5BD
100
AcDbEntity
  8
0
100
AcDbBlockEnd
  0
BLOCK
  5
5C7
330
5C5
100
AcDbEntity
  8
0
100
AcDbBlockBegin
  2
BLOCK_168
 70
     0
 10
0.0
 20
0.0
 30
0.0
  3
BLOCK_168
  1

  0
LWPOLYLINE
  5
5C9
330
5C5
100
AcDbEntity
  8
MOUNTAINLINE
 62
     7
100
AcDbPolyline
 90
        2
 70
     0
 43
0.0
 10
92.47463105327023
 20
-99.84472382486522
 10
106.5843641226595
 20
-109.1335625269701
  0
ENDBLK
  5
5C8
330
5C5
100
AcDbEntity
  8
0
100
AcDbBlockEnd
  0
BLOCK
  5
5CF
330
5CD
100
AcDbEntity
  8
0
100
AcDbBlockBegin
  2
BLOCK_169
 70
     0
 10
0.0
 20
0.0
 30
0.0
  3
BLOCK_169
  1

  0
LWPOLYLINE
  5
5D1
330
5CD
100
AcDbEntity
  8
MOUNTAINLINE
 62
     7
100
AcDbPolyline
 90
        2
 70
     0
 43
0.0
 10
84.8788845273914
 20
-114.9333807763882
 10
92.47463105327023
 20
-99.84472382486522
  0
ENDBLK
  5
5D0
330
5CD
100
AcDbEntity
  8
0
100
AcDbBlockEnd
  0
BLOCK
  5
5D7
330
5D5
100
AcDbEntity
  8
0
100
AcDbBlockBegin
  2
BLOCK_170
 70
     0
 10
0.0
 20
0.0
 30
0.0
  3
BLOCK_170
  1

  0
LWPOLYLINE
  5
5D9
330
5D5
100
AcDbEntity
  8
MOUNTAINLINE
 62
     7
100
AcDbPolyline
 90
        2
 70
     0
 43
0.0
 10
39.66786294581221
 20
-85.54516599423871
 10
68.01514212709344
 20
-113.9408487670877
  0
ENDBLK
  5
5D8
330
5D5
100
AcDbEntity
  8
0
100
AcDbBlockEnd
  0
BLOCK
  5
5DF
330
5DD
100
AcDbEntity
  8
0
100
AcDbBlockBegin
  2
BLOCK_171
 70
     0
 10
0.0
 20
0.0
 30
0.0
  3
BLOCK_171
  1

  0
LWPOLYLINE
  5
5E1
330
5DD
100
AcDbEntity
  8
MOUNTAINLINE
 62
     7
100
AcDbPolyline
 90
        2
 70
     0
 43
0.0
 10
68.01514212709344
 20
-113.9408487670877
 10
84.8788845273914
 20
-114.9333807763882
  0
ENDBLK
  5
5E0
330
5DD
100
AcDbEntity
  8
0
100
AcDbBlockEnd
  0
BLOCK
  5
5E7
330
5E5
100
AcDbEntity
  8
0
100
AcDbBlockBegin
  2
BLOCK_172
 70
     0
 10
0.0
 20
0.0
 30
0.0
  3
BLOCK_172
  1

  0
LWPOLYLINE
  5
5E9
330
5E5
100
AcDbEntity
  8
MOUNTAINLINE
 62
     7
100
AcDbPolyline
 90
        2
 70
     0
 43
0.0
 10
68.97804631522078
 20
-130.8063137151282
 10
68.01514212709344
 20
-113.9408487670877
  0
ENDBLK
  5
5E8
330
5E5
100
AcDbEntity
  8
0
100
AcDbBlockEnd
  0
BLOCK
  5
5EF
330
5ED
100
AcDbEntity
  8
0
100
AcDbBlockBegin
  2
BLOCK_173
 70
     0
 10
0.0
 20
0.0
 30
0.0
  3
BLOCK_173
  1

  0
LWPOLYLINE
  5
5F1
330
5ED
100
AcDbEntity
  8
MOUNTAINLINE
 62
     7
100
AcDbPolyline
 90
        2
 70
     0
 43
0.0
 10
15.13103162599155
 20
-127.9511908317275
 10
53.87629800085385
 20
-138.3758775153192
  0
ENDBLK
  5
5F0
330
5ED
100
AcDbEntity
  8
0
100
AcDbBlockEnd
  0
BLOCK
  5
5F7
330
5F5
100
AcDbEntity
  8
0
100
AcDbBlockBegin
  2
BLOCK_174
 70
     0
 10
0.0
 20
0.0
 30
0.0
  3
BLOCK_174
  1

  0
LWPOLYLINE
  5
5F9
330
5F5
100
AcDbEntity
  8
MOUNTAINLINE
 62
     7
100
AcDbPolyline
 90
        2
 70
     0
 43
0.0
 10
53.87629800085385
 20
-138.3758775153192
 10
68.97804631522078
 20
-130.8063137151282
  0
ENDBLK
  5
5F8
330
5F5
100
AcDbEntity
  8
0
100
AcDbBlockEnd
  0
BLOCK
  5
5FF
330
5FD
100
AcDbEntity
  8
0
100
AcDbBlockBegin
  2
BLOCK_175
 70
     0
 10
0.0
 20
0.0
 30
0.0
  3
BLOCK_175
  1

  0
LWPOLYLINE
  5
601
330
5FD
100
AcDbEntity
  8
MOUNTAINLINE
 62
     7
100
AcDbPolyline
 90
        2
 70
     0
 43
0.0
 10
54.79321016425309
 20
-139.7744140275564
 10
53.87629800085385
 20
-138.3758775153192
  0
ENDBLK
  5
600
330
5FD
100
AcDbEntity
  8
0
100
AcDbBlockEnd
  0
BLOCK
  5
607
330
605
100
AcDbEntity
  8
0
100
AcDbBlockBegin
  2
BLOCK_176
 70
     0
 10
0.0
 20
0.0
 30
0.0
  3
BLOCK_176
  1

  0
LWPOLYLINE
  5
609
330
605
100
AcDbEntity
  8
MOUNTAINLINE
 62
     7
100
AcDbPolyline
 90
        2
 70
     0
 43
0.0
 10
95.04432777571807
 20
-109.4598130694232
 10
106.5574923778745
 20
-152.5505506346054
  0
ENDBLK
  5
608
330
605
100
AcDbEntity
  8
0
100
AcDbBlockEnd
  0
BLOCK
  5
60F
330
60D
100
AcDbEntity
  8
0
100
AcDbBlockBegin
  2
BLOCK_177
 70
     0
 10
0.0
 20
0.0
 30
0.0
  3
BLOCK_177
  1

  0
LWPOLYLINE
  5
611
330
60D
100
AcDbEntity
  8
MOUNTAINLINE
 62
     7
100
AcDbPolyline
 90
        2
 70
     0
 43
0.0
 10
106.5574923778745
 20
-152.5505506346054
 10
118.1688422013606
 20
-109.4861680498854
  0
ENDBLK
  5
610
330
60D
100
AcDbEntity
  8
0
100
AcDbBlockEnd
  0
BLOCK
  5
617
330
615
100
AcDbEntity
  8
0
100
AcDbBlockBegin
  2
BLOCK_178
 70
     0
 10
0.0
 20
0.0
 30
0.0
  3
BLOCK_178
  1

  0
LWPOLYLINE
  5
619
330
615
100
AcDbEntity
  8
MOUNTAINLINE
 62
     7
100
AcDbPolyline
 90
        2
 70
     0
 43
0.0
 10
106.5574923778745
 20
-152.5505506346054
 10
133.5818548928198
 20
-125.6569294933254
  0
ENDBLK
  5
618
330
615
100
AcDbEntity
  8
0
100
AcDbBlockEnd
  0
BLOCK
  5
61F
330
61D
100
AcDbEntity
  8
0
100
AcDbBlockBegin
  2
BLOCK_179
 70
     0
 10
0.0
 20
0.0
 30
0.0
  3
BLOCK_179
  1

  0
LWPOLYLINE
  5
621
330
61D
100
AcDbEntity
  8
MOUNTAINLINE
 62
     7
100
AcDbPolyline
 90
        2
 70
     0
 43
0.0
 10
77.14120006752025
 20
-144.6350992476954
 10
106.5574923778745
 20
-152.5505506346054
  0
ENDBLK
  5
620
330
61D
100
AcDbEntity
  8
0
100
AcDbBlockEnd
  0
BLOCK
  5
627
330
625
100
AcDbEntity
  8
0
100
AcDbBlockBegin
  2
BLOCK_180
 70
     0
 10
0.0
 20
0.0
 30
0.0
  3
BLOCK_180
  1

  0
LWPOLYLINE
  5
629
330
625
100
AcDbEntity
  8
MOUNTAINLINE
 62
     7
100
AcDbPolyline
 90
        2
 70
     0
 43
0.0
 10
106.5574923778745
 20
-152.5505506346054
 10
79.62287460031996
 20
-125.5685627941287
  0
ENDBLK
  5
628
330
625
100
AcDbEntity
  8
0
100
AcDbBlockEnd
  0
BLOCK
  5
62F
330
62D
100
AcDbEntity
  8
0
100
AcDbBlockBegin
  2
BLOCK_181
 70
     0
 10
0.0
 20
0.0
 30
0.0
  3
BLOCK_181
  1

  0
LWPOLYLINE
  5
631
330
62D
100
AcDbEntity
  8
MOUNTAINLINE
 62
     7
100
AcDbPolyline
 90
        2
 70
     0
 43
0.0
 10
106.5574923778745
 20
-152.5505506346054
 10
136.0003119234652
 20
-144.7322509403794
  0
ENDBLK
  5
630
330
62D
100
AcDbEntity
  8
0
100
AcDbBlockEnd
  0
BLOCK
  5
637
330
635
100
AcDbEntity
  8
0
100
AcDbBlockBegin
  2
BLOCK_182
 70
     0
 10
0.0
 20
0.0
 30
0.0
  3
BLOCK_182
  1

  0
LWPOLYLINE
  5
639
330
635
100
AcDbEntity
  8
MOUNTAINLINE
 62
     7
100
AcDbPolyline
 90
        2
 70
     0
 43
0.0
 10
111.6142035311242
 20
-171.5540418407921
 10
106.5574923778745
 20
-152.5505506346054
  0
ENDBLK
  5
638
330
635
100
AcDbEntity
  8
0
100
AcDbBlockEnd
  0
BLOCK
  5
63F
330
63D
100
AcDbEntity
  8
0
100
AcDbBlockBegin
  2
BLOCK_183
 70
     0
 10
0.0
 20
0.0
 30
0.0
  3
BLOCK_183
  1

  0
LWPOLYLINE
  5
641
330
63D
100
AcDbEntity
  8
MOUNTAINLINE
 62
     7
100
AcDbPolyline
 90
        2
 70
     0
 43
0.0
 10
106.5574923778745
 20
-152.5505506346054
 10
101.4384249963418
 20
-171.5375053824629
  0
ENDBLK
  5
640
330
63D
100
AcDbEntity
  8
0
100
AcDbBlockEnd
  0
BLOCK
  5
647
330
645
100
AcDbEntity
  8
0
100
AcDbBlockBegin
  2
BLOCK_184
 70
     0
 10
0.0
 20
0.0
 30
0.0
  3
BLOCK_184
  1

  0
LWPOLYLINE
  5
649
330
645
100
AcDbEntity
  8
MOUNTAINLINE
 62
     7
100
AcDbPolyline
 90
        2
 70
     0
 43
0.0
 10
121.560538706589
 20
-167.6104410388266
 10
106.5574923778745
 20
-152.5505506346054
  0
ENDBLK
  5
648
330
645
100
AcDbEntity
  8
0
100
AcDbBlockEnd
  0
BLOCK
  5
64F
330
64D
100
AcDbEntity
  8
0
100
AcDbBlockBegin
  2
BLOCK_185
 70
     0
 10
0.0
 20
0.0
 30
0.0
  3
BLOCK_185
  1

  0
LWPOLYLINE
  5
651
330
64D
100
AcDbEntity
  8
MOUNTAINLINE
 62
     7
100
AcDbPolyline
 90
        2
 70
     0
 43
0.0
 10
106.5574923778745
 20
-152.5505506346054
 10
91.50569794804374
 20
-167.560831663839
  0
ENDBLK
  5
650
330
64D
100
AcDbEntity
  8
0
100
AcDbBlockEnd
  0
BLOCK
  5
657
330
655
100
AcDbEntity
  8
0
100
AcDbBlockBegin
  2
BLOCK_186
 70
     0
 10
0.0
 20
0.0
 30
0.0
  3
BLOCK_186
  1

  0
LWPOLYLINE
  5
659
330
655
100
AcDbEntity
  8
MOUNTAINLINE
 62
     7
100
AcDbPolyline
 90
        2
 70
     0
 43
0.0
 10
130.426836447428
 20
-158.9994248734446
 10
106.5574923778745
 20
-152.5505506346054
  0
ENDBLK
  5
658
330
655
100
AcDbEntity
  8
0
100
AcDbBlockEnd
  0
BLOCK
  5
65F
330
65D
100
AcDbEntity
  8
0
100
AcDbBlockBegin
  2
BLOCK_187
 70
     0
 10
0.0
 20
0.0
 30
0.0
  3
BLOCK_187
  1

  0
LWPOLYLINE
  5
661
330
65D
100
AcDbEntity
  8
MOUNTAINLINE
 62
     7
100
AcDbPolyline
 90
        2
 70
     0
 43
0.0
 10
106.5574923778745
 20
-152.5505506346054
 10
82.66747773540952
 20
-158.9208766963809
  0
ENDBLK
  5
660
330
65D
100
AcDbEntity
  8
0
100
AcDbBlockEnd
  0
BLOCK
  5
667
330
665
100
AcDbEntity
  8
0
100
AcDbBlockBegin
  2
BLOCK_188
 70
     0
 10
0.0
 20
0.0
 30
0.0
  3
BLOCK_188
  1

  0
LWPOLYLINE
  5
669
330
665
100
AcDbEntity
  8
MOUNTAINLINE
 62
     7
100
AcDbPolyline
 90
        2
 70
     0
 43
0.0
 10
106.530276123541
 20
-169.3164523231223
 10
106.5040933978532
 20
-185.0908555309842
  0
ENDBLK
  5
668
330
665
100
AcDbEntity
  8
0
100
AcDbBlockEnd
  0
BLOCK
  5
66F
330
66D
100
AcDbEntity
  8
0
100
AcDbBlockBegin
  2
BLOCK_189
 70
     0
 10
0.0
 20
0.0
 30
0.0
  3
BLOCK_189
  1

  0
LWPOLYLINE
  5
671
330
66D
100
AcDbEntity
  8
MOUNTAINLINE
 62
     7
100
AcDbPolyline
 90
        2
 70
     0
 43
0.0
 10
106.5040933978532
 20
-185.0908555309842
 10
116.4821234517823
 20
-189.8464653388231
  0
ENDBLK
  5
670
330
66D
100
AcDbEntity
  8
0
100
AcDbBlockEnd
  0
BLOCK
  5
677
330
675
100
AcDbEntity
  8
0
100
AcDbBlockBegin
  2
BLOCK_190
 70
     0
 10
0.0
 20
0.0
 30
0.0
  3
BLOCK_190
  1

  0
LWPOLYLINE
  5
679
330
675
100
AcDbEntity
  8
MOUNTAINLINE
 62
     7
100
AcDbPolyline
 90
        2
 70
     0
 43
0.0
 10
123.200404157568
 20
-181.4979654494172
 10
115.1778103010667
 20
-167.5436061864127
  0
ENDBLK
  5
678
330
675
100
AcDbEntity
  8
0
100
AcDbBlockEnd
  0
BLOCK
  5
67F
330
67D
100
AcDbEntity
  8
0
100
AcDbBlockBegin
  2
BLOCK_191
 70
     0
 10
0.0
 20
0.0
 30
0.0
  3
BLOCK_191
  1

  0
LWPOLYLINE
  5
681
330
67D
100
AcDbEntity
  8
MOUNTAINLINE
 62
     7
100
AcDbPolyline
 90
        2
 70
     0
 43
0.0
 10
116.4821234517823
 20
-189.8464653388231
 10
123.200404157568
 20
-181.4986544685142
  0
ENDBLK
  5
680
330
67D
100
AcDbEntity
  8
0
100
AcDbBlockEnd
  0
BLOCK
  5
687
330
685
100
AcDbEntity
  8
0
100
AcDbBlockBegin
  2
BLOCK_192
 70
     0
 10
0.0
 20
0.0
 30
0.0
  3
BLOCK_192
  1

  0
LWPOLYLINE
  5
689
330
685
100
AcDbEntity
  8
MOUNTAINLINE
 62
     7
100
AcDbPolyline
 90
        2
 70
     0
 43
0.0
 10
123.200404157568
 20
-181.4986544685142
 10
135.6323757256405
 20
-181.7349880188024
  0
ENDBLK
  5
688
330
685
100
AcDbEntity
  8
0
100
AcDbBlockEnd
  0
BLOCK
  5
68F
330
68D
100
AcDbEntity
  8
0
100
AcDbBlockBegin
  2
BLOCK_193
 70
     0
 10
0.0
 20
0.0
 30
0.0
  3
BLOCK_193
  1

  0
LWPOLYLINE
  5
691
330
68D
100
AcDbEntity
  8
MOUNTAINLINE
 62
     7
100
AcDbPolyline
 90
        2
 70
     0
 43
0.0
 10
97.88859860834037
 20
-167.5150118938851
 10
89.81966821756245
 20
-181.4435329407502
  0
ENDBLK
  5
690
330
68D
100
AcDbEntity
  8
0
100
AcDbBlockEnd
  0
BLOCK
  5
697
330
695
100
AcDbEntity
  8
0
100
AcDbBlockBegin
  2
BLOCK_194
 70
     0
 10
0.0
 20
0.0
 30
0.0
  3
BLOCK_194
  1

  0
LWPOLYLINE
  5
699
330
695
100
AcDbEntity
  8
MOUNTAINLINE
 62
     7
100
AcDbPolyline
 90
        2
 70
     0
 43
0.0
 10
137.6653265714864
 20
-170.5928602004074
 10
122.9285861237817
 20
-162.0462673205996
  0
ENDBLK
  5
698
330
695
100
AcDbEntity
  8
0
100
AcDbBlockEnd
  0
BLOCK
  5
69F
330
69D
100
AcDbEntity
  8
0
100
AcDbBlockBegin
  2
BLOCK_195
 70
     0
 10
0.0
 20
0.0
 30
0.0
  3
BLOCK_195
  1

  0
LWPOLYLINE
  5
6A1
330
69D
100
AcDbEntity
  8
MOUNTAINLINE
 62
     7
100
AcDbPolyline
 90
        2
 70
     0
 43
0.0
 10
135.6323757256405
 20
-181.7349880188024
 10
137.6653265714864
 20
-170.5928602004074
  0
ENDBLK
  5
6A0
330
69D
100
AcDbEntity
  8
0
100
AcDbBlockEnd
  0
BLOCK
  5
6A7
330
6A5
100
AcDbEntity
  8
0
100
AcDbBlockBegin
  2
BLOCK_196
 70
     0
 10
0.0
 20
0.0
 30
0.0
  3
BLOCK_196
  1

  0
LWPOLYLINE
  5
6A9
330
6A5
100
AcDbEntity
  8
MOUNTAINLINE
 62
     7
100
AcDbPolyline
 90
        2
 70
     0
 43
0.0
 10
137.6653265714864
 20
-170.5928602004074
 10
151.5842013509929
 20
-164.7158718121196
  0
ENDBLK
  5
6A8
330
6A5
100
AcDbEntity
  8
0
100
AcDbBlockEnd
  0
BLOCK
  5
6AF
330
6AD
100
AcDbEntity
  8
0
100
AcDbBlockBegin
  2
BLOCK_197
 70
     0
 10
0.0
 20
0.0
 30
0.0
  3
BLOCK_197
  1

  0
LWPOLYLINE
  5
6B1
330
6AD
100
AcDbEntity
  8
MOUNTAINLINE
 62
     7
100
AcDbPolyline
 90
        2
 70
     0
 43
0.0
 10
90.1555650273743
 20
-161.9918348119326
 10
75.39160832533612
 20
-170.4901963549469
  0
ENDBLK
  5
6B0
330
6AD
100
AcDbEntity
  8
0
100
AcDbBlockEnd
  0
BLOCK
  5
6B7
330
6B5
100
AcDbEntity
  8
0
100
AcDbBlockBegin
  2
BLOCK_198
 70
     0
 10
0.0
 20
0.0
 30
0.0
  3
BLOCK_198
  1

  0
LWPOLYLINE
  5
6B9
330
6B5
100
AcDbEntity
  8
MOUNTAINLINE
 62
     7
100
AcDbPolyline
 90
        2
 70
     0
 43
0.0
 10
121.2208522917434
 20
-127.299895530241
 10
128.3211940868433
 20
-114.9826456418273
  0
ENDBLK
  5
6B8
330
6B5
100
AcDbEntity
  8
0
100
AcDbBlockEnd
  0
BLOCK
  5
6BF
330
6BD
100
AcDbEntity
  8
0
100
AcDbBlockBegin
  2
BLOCK_199
 70
     0
 10
0.0
 20
0.0
 30
0.0
  3
BLOCK_199
  1

  0
LWPOLYLINE
  5
6C1
330
6BD
100
AcDbEntity
  8
MOUNTAINLINE
 62
     7
100
AcDbPolyline
 90
        2
 70
     0
 43
0.0
 10
128.6636365780772
 20
-139.8564073001054
 10
144.1855142868703
 20
-130.8910630640654
  0
ENDBLK
  5
6C0
330
6BD
100
AcDbEntity
  8
0
100
AcDbBlockEnd
  0
BLOCK
  5
6C7
330
6C5
100
AcDbEntity
  8
0
100
AcDbBlockBegin
  2
BLOCK_200
 70
     0
 10
0.0
 20
0.0
 30
0.0
  3
BLOCK_200
  1

  0
LWPOLYLINE
  5
6C9
330
6C5
100
AcDbEntity
  8
MOUNTAINLINE
 62
     7
100
AcDbPolyline
 90
        2
 70
     0
 43
0.0
 10
146.7431531751198
 20
-152.6373670408337
 10
128.2808864696659
 20
-152.5977484427534
  0
ENDBLK
  5
6C8
330
6C5
100
AcDbEntity
  8
0
100
AcDbBlockEnd
  0
BLOCK
  5
6CF
330
6CD
100
AcDbEntity
  8
0
100
AcDbBlockBegin
  2
BLOCK_201
 70
     0
 10
0.0
 20
0.0
 30
0.0
  3
BLOCK_201
  1

  0
LWPOLYLINE
  5
6D1
330
6CD
100
AcDbEntity
  8
MOUNTAINLINE
 62
     7
100
AcDbPolyline
 90
        2
 70
     0
 43
0.0
 10
151.5842013509929
 20
-164.7158718121196
 10
146.7431531751198
 20
-152.6373670408337
  0
ENDBLK
  5
6D0
330
6CD
100
AcDbEntity
  8
0
100
AcDbBlockEnd
  0
BLOCK
  5
6D7
330
6D5
100
AcDbEntity
  8
0
100
AcDbBlockBegin
  2
BLOCK_202
 70
     0
 10
0.0
 20
0.0
 30
0.0
  3
BLOCK_202
  1

  0
LWPOLYLINE
  5
6D9
330
6D5
100
AcDbEntity
  8
MOUNTAINLINE
 62
     7
100
AcDbPolyline
 90
        2
 70
     0
 43
0.0
 10
146.7431531751198
 20
-152.6373670408337
 10
158.3641492659645
 20
-139.9446017445277
  0
ENDBLK
  5
6D8
330
6D5
100
AcDbEntity
  8
0
100
AcDbBlockEnd
  0
BLOCK
  5
6DF
330
6DD
100
AcDbEntity
  8
0
100
AcDbBlockBegin
  2
BLOCK_203
 70
     0
 10
0.0
 20
0.0
 30
0.0
  3
BLOCK_203
  1

  0
LWPOLYLINE
  5
6E1
330
6DD
100
AcDbEntity
  8
MOUNTAINLINE
 62
     7
100
AcDbPolyline
 90
        2
 70
     0
 43
0.0
 10
84.49423961646324
 20
-139.7837157853666
 10
68.97804631522078
 20
-130.8063137151282
  0
ENDBLK
  5
6E0
330
6DD
100
AcDbEntity
  8
0
100
AcDbBlockEnd
  0
BLOCK
  5
6E7
330
6E5
100
AcDbEntity
  8
0
100
AcDbBlockBegin
  2
BLOCK_204
 70
     0
 10
0.0
 20
0.0
 30
0.0
  3
BLOCK_204
  1

  0
LWPOLYLINE
  5
6E9
330
6E5
100
AcDbEntity
  8
MOUNTAINLINE
 62
     7
100
AcDbPolyline
 90
        2
 70
     0
 43
0.0
 10
91.97802053907148
 20
-127.2518364482218
 10
84.8788845273914
 20
-114.9333807763882
  0
ENDBLK
  5
6E8
330
6E5
100
AcDbEntity
  8
0
100
AcDbBlockEnd
  0
BLOCK
  5
6EF
330
6ED
100
AcDbEntity
  8
0
100
AcDbBlockBegin
  2
BLOCK_205
 70
     0
 10
0.0
 20
0.0
 30
0.0
  3
BLOCK_205
  1

  0
LWPOLYLINE
  5
6F1
330
6ED
100
AcDbEntity
  8
MOUNTAINLINE
 62
     7
100
AcDbPolyline
 90
        2
 70
     0
 43
0.0
 10
84.83513181472874
 20
-152.5260904566601
 10
66.37252059972631
 20
-152.5050753742001
  0
ENDBLK
  5
6F0
330
6ED
100
AcDbEntity
  8
0
100
AcDbBlockEnd
  0
BLOCK
  5
6F7
330
6F5
100
AcDbEntity
  8
0
100
AcDbBlockBegin
  2
BLOCK_206
 70
     0
 10
0.0
 20
0.0
 30
0.0
  3
BLOCK_206
  1

  0
LWPOLYLINE
  5
6F9
330
6F5
100
AcDbEntity
  8
MOUNTAINLINE
 62
     7
100
AcDbPolyline
 90
        2
 70
     0
 43
0.0
 10
106.5767849125919
 20
-121.7090223220033
 10
106.5843641226595
 20
-109.1335625269701
  0
ENDBLK
  5
6F8
330
6F5
100
AcDbEntity
  8
0
100
AcDbBlockEnd
  0
BLOCK
  5
6FF
330
6FD
100
AcDbEntity
  8
0
100
AcDbBlockBegin
  2
BLOCK_207
 70
     0
 10
0.0
 20
0.0
 30
0.0
  3
BLOCK_207
  1

  0
LWPOLYLINE
  5
701
330
6FD
100
AcDbEntity
  8
MOUNTAINLINE
 62
     7
100
AcDbPolyline
 90
        2
 70
     0
 43
0.0
 10
149.9746527402841
 20
-152.6442572318041
 10
153.2058077958999
 20
-152.6032605955297
  0
ENDBLK
  5
700
330
6FD
100
AcDbEntity
  8
0
100
AcDbBlockEnd
  0
BLOCK
  5
707
330
705
100
AcDbEntity
  8
0
100
AcDbBlockBegin
  2
BLOCK_208
 70
     0
 10
0.0
 20
0.0
 30
0.0
  3
BLOCK_208
  1

  0
LWPOLYLINE
  5
709
330
705
100
AcDbEntity
  8
MOUNTAINLINE
 62
     7
100
AcDbPolyline
 90
        2
 70
     0
 43
0.0
 10
144.1148898294227
 20
-174.3332003687431
 10
152.2814886772074
 20
-179.0695176418646
  0
ENDBLK
  5
708
330
705
100
AcDbEntity
  8
0
100
AcDbBlockEnd
  0
BLOCK
  5
70F
330
70D
100
AcDbEntity
  8
0
100
AcDbBlockBegin
  2
BLOCK_209
 70
     0
 10
0.0
 20
0.0
 30
0.0
  3
BLOCK_209
  1

  0
LWPOLYLINE
  5
711
330
70D
100
AcDbEntity
  8
MOUNTAINLINE
 62
     7
100
AcDbPolyline
 90
        2
 70
     0
 43
0.0
 10
151.5842013509929
 20
-164.7155273025711
 10
159.2247341181799
 20
-166.7794840077843
  0
ENDBLK
  5
710
330
70D
100
AcDbEntity
  8
0
100
AcDbBlockEnd
  0
BLOCK
  5
717
330
715
100
AcDbEntity
  8
0
100
AcDbBlockBegin
  2
BLOCK_210
 70
     0
 10
0.0
 20
0.0
 30
0.0
  3
BLOCK_210
  1

  0
LWPOLYLINE
  5
719
330
715
100
AcDbEntity
  8
MOUNTAINLINE
 62
     7
100
AcDbPolyline
 90
        2
 70
     0
 43
0.0
 10
135.6323757256405
 20
-181.7349880188024
 10
145.0609130496723
 20
-191.1996988454293
  0
ENDBLK
  5
718
330
715
100
AcDbEntity
  8
0
100
AcDbBlockEnd
  0
BLOCK
  5
71F
330
71D
100
AcDbEntity
  8
0
100
AcDbBlockBegin
  2
BLOCK_211
 70
     0
 10
0.0
 20
0.0
 30
0.0
  3
BLOCK_211
  1

  0
LWPOLYLINE
  5
721
330
71D
100
AcDbEntity
  8
MOUNTAINLINE
 62
     7
100
AcDbPolyline
 90
        2
 70
     0
 43
0.0
 10
116.4821234517823
 20
-189.8464653388231
 10
120.587299232006
 20
-205.2708468453837
  0
ENDBLK
  5
720
330
71D
100
AcDbEntity
  8
0
100
AcDbBlockEnd
  0
BLOCK
  5
727
330
725
100
AcDbEntity
  8
0
100
AcDbBlockBegin
  2
BLOCK_212
 70
     0
 10
0.0
 20
0.0
 30
0.0
  3
BLOCK_212
  1

  0
LWPOLYLINE
  5
729
330
725
100
AcDbEntity
  8
MOUNTAINLINE
 62
     7
100
AcDbPolyline
 90
        2
 70
     0
 43
0.0
 10
128.1982041780199
 20
-190.190285868251
 10
135.7484754434934
 20
-203.3216118198293
  0
ENDBLK
  5
728
330
725
100
AcDbEntity
  8
0
100
AcDbBlockEnd
  0
BLOCK
  5
72F
330
72D
100
AcDbEntity
  8
0
100
AcDbBlockBegin
  2
BLOCK_213
 70
     0
 10
0.0
 20
0.0
 30
0.0
  3
BLOCK_213
  1

  0
LWPOLYLINE
  5
731
330
72D
100
AcDbEntity
  8
MOUNTAINLINE
 62
     7
100
AcDbPolyline
 90
        2
 70
     0
 43
0.0
 10
197.9582871683924
 20
-177.241549977391
 10
168.2402044935301
 20
-169.2144774967589
  0
ENDBLK
  5
730
330
72D
100
AcDbEntity
  8
0
100
AcDbBlockEnd
  0
BLOCK
  5
737
330
735
100
AcDbEntity
  8
0
100
AcDbBlockBegin
  2
BLOCK_214
 70
     0
 10
0.0
 20
0.0
 30
0.0
  3
BLOCK_214
  1

  0
LWPOLYLINE
  5
739
330
735
100
AcDbEntity
  8
MOUNTAINLINE
 62
     7
100
AcDbPolyline
 90
        2
 70
     0
 43
0.0
 10
168.2415825317243
 20
-169.2151665158559
 10
163.5789903019872
 20
-164.0792181664455
  0
ENDBLK
  5
738
330
735
100
AcDbEntity
  8
0
100
AcDbBlockEnd
  0
BLOCK
  5
73F
330
73D
100
AcDbEntity
  8
0
100
AcDbBlockBegin
  2
BLOCK_215
 70
     0
 10
0.0
 20
0.0
 30
0.0
  3
BLOCK_215
  1

  0
LWPOLYLINE
  5
741
330
73D
100
AcDbEntity
  8
MOUNTAINLINE
 62
     7
100
AcDbPolyline
 90
        2
 70
     0
 43
0.0
 10
106.5040933978532
 20
-185.0908555309842
 10
106.3842040749664
 20
-195.795800732301
  0
ENDBLK
  5
740
330
73D
100
AcDbEntity
  8
0
100
AcDbBlockEnd
  0
ENDSEC
  0
SECTION
  2
ENTITIES
  0
POINT
  5
7A6
330
1F
100
AcDbEntity
  8
0
100
AcDbPoint
 10
0.0
 20
0.0
 30
0.0
  0
CIRCLE
  5
7AE
330
1F
100
AcDbEntity
  8
0
100
AcDbCircle
 10
0.0
 20
0.0
 30
0.0
 40
0.0000000000000006
  0
CIRCLE
  5
7AF
330
1F
100
AcDbEntity
  8
0
100
AcDbCircle
 10
0.0
 20
0.0
 30
0.0
 40
3.99999837301044
  0
LINE
  5
7CA
330
1F
100
AcDbEntity
  8
0
  6
ACAD_ISO03W100
 62
     7
 48
0.005
370
    50
100
AcDbLine
 10
0.0000000000000009
 20
0.0
 30
0.0
 11
0.0008150782214882
 21
1.303004421824754
 31
0.0
  0
LINE
  5
7CB
330
1F
100
AcDbEntity
  8
0
  6
ACAD_ISO03W100
 62
     7
 48
0.005
370
    50
100
AcDbLine
 10
0.0019503657442748
 20
3.183338936406563
 30
0.0
 11
0.0011352875227875
 21
1.83429715003603
 31
0.0
  0
LWPOLYLINE
  5
7D6
330
1F
100
AcDbEntity
  8
MOUNTAINLINE
 62
     7
370
    50
100
AcDbPolyline
 90
        2
 70
     0
 43
0.0
 10
0.0008150782214882
 20
1.303004421824754
 10
0.0011352875227875
 20
1.83429715003603
  0
LWPOLYLINE
  5
7F3
330
1F
100
AcDbEntity
  8
MOUNTAINLINE
 62
     7
370
    50
100
AcDbPolyline
 90
        2
 70
     0
 43
0.0
 10
0.0390496178045211
 20
0.1448279232376162
 10
0.4905606495892867
 20
1.81940014004153
  0
LWPOLYLINE
  5
7FC
330
1F
100
AcDbEntity
  8
MOUNTAINLINE
 62
     7
370
    50
100
AcDbPolyline
 90
        2
 70
     0
 43
0.0
 10
-0.5949779917490728
 20
2.226735481229689
 10
0.0011352875227875
 20
1.83429715003603
  0
LWPOLYLINE
  5
7FE
330
1F
100
AcDbEntity
  8
MOUNTAINLINE
 62
     7
370
    50
100
AcDbPolyline
 90
        2
 70
     0
 43
0.0
 10
0.0011352875227875
 20
1.83429715003603
 10
0.5988641682693805
 20
2.22570207848459
  0
LWPOLYLINE
  5
800
330
1F
100
AcDbEntity
  8
MOUNTAINLINE
 62
     7
370
    50
100
AcDbPolyline
 90
        2
 70
     0
 43
0.0
 10
1.037303476588215
 20
3.863157838031495
 10
0.6000285657286471
 20
2.225396424151532
  0
LWPOLYLINE
  5
845
330
1F
100
AcDbEntity
  8
0
  6
ACAD_ISO03W100
 62
     7
 48
0.005
370
    50
100
AcDbPolyline
 90
        2
 70
     0
 43
0.0
 10
0.6000285657286471
 20
2.225396424151532
 10
0.49008033563734
 20
1.819523857271578
  0
LWPOLYLINE
  5
853
330
1F
100
AcDbEntity
  8
VALLEYLINE
  6
AI-LINETYPE-56
 62
     7
100
AcDbPolyline
 90
        2
 70
     0
 43
0.0
 10
1.208280688513368
 20
0.2940103584649778
 10
1.243911250766943
 20
0.3303104492576327
  0
LWPOLYLINE
  5
86E
330
1F
100
AcDbEntity
  8
0
  6
ACAD_ISO03W100
 62
     7
 48
0.005
370
    50
100
AcDbPolyline
 90
        2
 70
     0
 43
0.0
 10
0.4905606495892867
 20
1.81940014004153
 10
0.0008150782214882
 20
1.303004421824754
  0
LWPOLYLINE
  5
86F
330
1F
100
AcDbEntity
  8
0
  6
ACAD_ISO03W100
 62
     7
 48
0.005
370
    50
100
AcDbPolyline
 90
        2
 70
     0
 43
0.0
 10
0.0008150782214882
 20
1.303004421824754
 10
-0.4864124836406445
 20
1.820513595111956
  0
LWPOLYLINE
  5
890
330
1F
100
AcDbEntity
  8
CUTLINE
 62
     7
100
AcDbPolyline
 90
        2
 70
     0
 43
0.0
 10
0.0019503657442748
 20
3.183338936406563
 10
-1.032580389394059
 20
3.864409565300207
  0
LWPOLYLINE
  5
891
330
1F
100
AcDbEntity
  8
CUTLINE
 62
     7
100
AcDbPolyline
 90
        2
 70
     0
 43
0.0
 10
1.037303476588215
 20
3.863157838031495
 10
0.0019503657442748
 20
3.183338936406563
  0
LWPOLYLINE
  5
8D2
330
1F
100
AcDbEntity
  8
CUTLINE
 62
     7
100
AcDbPolyline
 90
        2
 70
     0
 43
0.0
 10
-1.033247756856435
 20
3.864244564858352
 10
-1.589980401922068
 20
2.757827570656357
  0
LWPOLYLINE
  5
8D3
330
1F
100
AcDbEntity
  8
CUTLINE
 62
     7
100
AcDbPolyline
 90
        2
 70
     0
 43
0.0
 10
-1.589980401922068
 20
2.757827570656357
 10
-2.826445631314987
 20
2.830386659480529
  0
LINE
  5
8D4
330
1F
100
AcDbEntity
  8
0
  6
ACAD_ISO03W100
 62
     7
 48
0.005
370
    50
100
AcDbLine
 10
-1.589980401922068
 20
2.757827570656357
 30
0.0
 11
-0.9161653871826814
 21
1.589115573781991
 31
0.0
  0
LINE
  5
8D5
330
1F
100
AcDbEntity
  8
0
  6
ACAD_ISO03W100
 62
     7
 48
0.005
370
    50
100
AcDbLine
 10
-0.0749187256280832
 20
0.129950700460844
 30
0.0
 11
-0.6507963324664968
 21
1.128842469654436
 31
0.0
  0
LWPOLYLINE
  5
8D6
330
1F
100
AcDbEntity
  8
0
  6
ACAD_ISO03W100
 62
     7
 48
0.005
370
    50
100
AcDbPolyline
 90
        2
 70
     0
 43
0.0
 10
-0.6507963324664968
 20
1.128842469654436
 10
-1.331502365106658
 20
1.333404779481569
  0
LWPOLYLINE
  5
8D7
330
1F
100
AcDbEntity
  8
0
  6
ACAD_ISO03W100
 62
     7
 48
0.005
370
    50
100
AcDbPolyline
 90
        2
 70
     0
 43
0.0
 10
-0.4848620853794465
 20
1.820927065719573
 10
-0.6507963324664968
 20
1.128842469654436
  0
LWPOLYLINE
  5
8D8
330
1F
100
AcDbEntity
  8
0
  6
ACAD_ISO03W100
 62
     7
 48
0.005
370
    50
100
AcDbPolyline
 90
        2
 70
     0
 43
0.0
 10
-0.5930582311584169
 20
2.2272641196706
 10
-0.4853399080786485
 20
1.820794051007707
  0
LWPOLYLINE
  5
8D9
330
1F
100
AcDbEntity
  8
MOUNTAINLINE
 62
     7
370
    50
100
AcDbPolyline
 90
        2
 70
     0
 43
0.0
 10
-1.033247756856435
 20
3.864244564858352
 10
-0.5930582311584169
 20
2.2272641196706
  0
LWPOLYLINE
  5
8DA
330
1F
100
AcDbEntity
  8
MOUNTAINLINE
 62
     7
370
    50
100
AcDbPolyline
 90
        2
 70
     0
 43
0.0
 10
-0.9161653871826814
 20
1.589115573781991
 10
-0.5942194561047727
 20
2.226946625358172
  0
LWPOLYLINE
  5
8DB
330
1F
100
AcDbEntity
  8
MOUNTAINLINE
 62
     7
370
    50
100
AcDbPolyline
 90
        2
 70
     0
 43
0.0
 10
-1.628633796162189
 20
1.630920498378541
 10
-0.9161653871826814
 20
1.589115573781991
  0
LWPOLYLINE
  5
8DC
330
1F
100
AcDbEntity
  8
MOUNTAINLINE
 62
     7
370
    50
100
AcDbPolyline
 90
        2
 70
     0
 43
0.0
 10
-0.0385960005920197
 20
0.1449494696033787
 10
-0.4848620853794465
 20
1.820927065719573
  0
LWPOLYLINE
  5
8DD
330
1F
100
AcDbEntity
  8
MOUNTAINLINE
 62
     7
370
    50
100
AcDbPolyline
 90
        2
 70
     0
 43
0.0
 10
-0.6507963324664968
 20
1.128842469654436
 10
-0.9161653871826814
 20
1.589115573781991
  0
LWPOLYLINE
  5
8DE
330
1F
100
AcDbEntity
  8
CUTLINE
 62
     7
100
AcDbPolyline
 90
        2
 70
     0
 43
0.0
 10
-2.826941088270136
 20
2.829910081175059
 10
-2.755877204912081
 20
1.593358534484494
  0
LWPOLYLINE
  5
8DF
330
1F
100
AcDbEntity
  8
CUTLINE
 62
     7
100
AcDbPolyline
 90
        2
 70
     0
 43
0.0
 10
-2.755877204912081
 20
1.593358534484494
 10
-3.862967048874589
 20
1.037963933985221
  0
LINE
  5
8E0
330
1F
100
AcDbEntity
  8
0
  6
ACAD_ISO03W100
 62
     7
 48
0.005
370
    50
100
AcDbLine
 10
-2.755877204912081
 20
1.593358534484494
 30
0.0
 11
-1.587980286259204
 21
0.9181317628533488
 31
0.0
  0
LINE
  5
8E1
330
1F
100
AcDbEntity
  8
0
  6
ACAD_ISO03W100
 62
     7
 48
0.005
370
    50
100
AcDbLine
 10
-0.1298568698434983
 20
0.0750812450246314
 30
0.0
 11
-1.128027391432947
 21
0.6522080893582575
 31
0.0
  0
LWPOLYLINE
  5
8E2
330
1F
100
AcDbEntity
  8
0
  6
ACAD_ISO03W100
 62
     7
 48
0.005
370
    50
100
AcDbPolyline
 90
        2
 70
     0
 43
0.0
 10
-1.128027391432947
 20
0.6522080893582575
 10
-1.819817263122214
 20
0.4890112300052976
  0
LWPOLYLINE
  5
8E3
330
1F
100
AcDbEntity
  8
0
  6
ACAD_ISO03W100
 62
     7
 48
0.005
370
    50
100
AcDbPolyline
 90
        2
 70
     0
 43
0.0
 10
-1.330366416130287
 20
1.334538054662083
 10
-1.128027391432947
 20
0.6522080893582575
  0
LWPOLYLINE
  5
8E4
330
1F
100
AcDbEntity
  8
0
  6
ACAD_ISO03W100
 62
     7
 48
0.005
370
    50
100
AcDbPolyline
 90
        2
 70
     0
 43
0.0
 10
-1.627235553941953
 20
1.632338192993115
 10
-1.330713715370367
 20
1.334183949192929
  0
LWPOLYLINE
  5
8E5
330
1F
100
AcDbEntity
  8
MOUNTAINLINE
 62
     7
370
    50
100
AcDbPolyline
 90
        2
 70
     0
 43
0.0
 10
-2.826941088270136
 20
2.829910081175059
 10
-1.627235553941953
 20
1.632338192993115
  0
LWPOLYLINE
  5
8E6
330
1F
100
AcDbEntity
  8
MOUNTAINLINE
 62
     7
370
    50
100
AcDbPolyline
 90
        2
 70
     0
 43
0.0
 10
-1.587980286259204
 20
0.9181317628533488
 10
-1.628082457088791
 20
1.631482622379817
  0
LWPOLYLINE
  5
8E7
330
1F
100
AcDbEntity
  8
MOUNTAINLINE
 62
     7
370
    50
100
AcDbPolyline
 90
        2
 70
     0
 43
0.0
 10
-2.225898490127614
 20
0.5981016850675
 10
-1.587980286259204
 20
0.9181317628533488
  0
LWPOLYLINE
  5
8E8
330
1F
100
AcDbEntity
  8
MOUNTAINLINE
 62
     7
370
    50
100
AcDbPolyline
 90
        2
 70
     0
 43
0.0
 10
-0.1058998517988577
 20
0.1062319226455964
 10
-1.330366416130287
 20
1.334538054662083
  0
LWPOLYLINE
  5
8E9
330
1F
100
AcDbEntity
  8
MOUNTAINLINE
 62
     7
370
    50
100
AcDbPolyline
 90
        2
 70
     0
 43
0.0
 10
-1.128027391432947
 20
0.6522080893582575
 10
-1.587980286259204
 20
0.9181317628533488
  0
LWPOLYLINE
  5
8EA
330
1F
100
AcDbEntity
  8
CUTLINE
 62
     7
100
AcDbPolyline
 90
        2
 70
     0
 43
0.0
 10
-3.863157838031495
 20
1.037303476588215
 10
-3.183338936406563
 20
0.001950365744275
  0
LWPOLYLINE
  5
8EB
330
1F
100
AcDbEntity
  8
CUTLINE
 62
     7
100
AcDbPolyline
 90
        2
 70
     0
 43
0.0
 10
-3.183338936406563
 20
0.001950365744275
 10
-3.864409565300207
 20
-1.032580389394059
  0
LINE
  5
8EC
330
1F
100
AcDbEntity
  8
0
  6
ACAD_ISO03W100
 62
     7
 48
0.005
370
    50
100
AcDbLine
 10
-3.183338936406563
 20
0.001950365744275
 30
0.0
 11
-1.83429715003603
 21
0.0011352875227876
 31
0.0
  0
LINE
  5
8ED
330
1F
100
AcDbEntity
  8
0
  6
ACAD_ISO03W100
 62
     7
 48
0.005
370
    50
100
AcDbLine
 10
-0.1499999706527146
 20
0.0000938306173457
 30
0.0
 11
-1.303004421824754
 21
0.0008150782214883
 31
0.0
  0
LWPOLYLINE
  5
8EE
330
1F
100
AcDbEntity
  8
0
  6
ACAD_ISO03W100
 62
     7
 48
0.005
370
    50
100
AcDbPolyline
 90
        2
 70
     0
 43
0.0
 10
-1.303004421824754
 20
0.0008150782214883
 10
-1.820513595111956
 20
-0.4864124836406444
  0
LWPOLYLINE
  5
8EF
330
1F
100
AcDbEntity
  8
0
  6
ACAD_ISO03W100
 62
     7
 48
0.005
370
    50
100
AcDbPolyline
 90
        2
 70
     0
 43
0.0
 10
-1.81940014004153
 20
0.4905606495892868
 10
-1.303004421824754
 20
0.0008150782214883
  0
LWPOLYLINE
  5
8F0
330
1F
100
AcDbEntity
  8
0
  6
ACAD_ISO03W100
 62
     7
 48
0.005
370
    50
100
AcDbPolyline
 90
        2
 70
     0
 43
0.0
 10
-2.225396424151532
 20
0.6000285657286472
 10
-1.819523857271578
 20
0.4900803356373401
  0
LWPOLYLINE
  5
8F1
330
1F
100
AcDbEntity
  8
MOUNTAINLINE
 62
     7
370
    50
100
AcDbPolyline
 90
        2
 70
     0
 43
0.0
 10
-3.863157838031495
 20
1.037303476588215
 10
-2.225396424151532
 20
0.6000285657286472
  0
LWPOLYLINE
  5
8F2
330
1F
100
AcDbEntity
  8
MOUNTAINLINE
 62
     7
370
    50
100
AcDbPolyline
 90
        2
 70
     0
 43
0.0
 10
-1.83429715003603
 20
0.0011352875227876
 10
-2.22570207848459
 20
0.5988641682693806
  0
LWPOLYLINE
  5
8F3
330
1F
100
AcDbEntity
  8
MOUNTAINLINE
 62
     7
370
    50
100
AcDbPolyline
 90
        2
 70
     0
 43
0.0
 10
-2.226735481229689
 20
-0.5949779917490727
 10
-1.83429715003603
 20
0.0011352875227876
  0
LWPOLYLINE
  5
8F4
330
1F
100
AcDbEntity
  8
MOUNTAINLINE
 62
     7
370
    50
100
AcDbPolyline
 90
        2
 70
     0
 43
0.0
 10
-0.1448279232376162
 20
0.0390496178045211
 10
-1.81940014004153
 20
0.4905606495892868
  0
LWPOLYLINE
  5
8F5
330
1F
100
AcDbEntity
  8
MOUNTAINLINE
 62
     7
370
    50
100
AcDbPolyline
 90
        2
 70
     0
 43
0.0
 10
-1.303004421824754
 20
0.0008150782214883
 10
-1.83429715003603
 20
0.0011352875227876
  0
LWPOLYLINE
  5
8F6
330
1F
100
AcDbEntity
  8
CUTLINE
 62
     7
100
AcDbPolyline
 90
        2
 70
     0
 43
0.0
 10
-3.864244564858352
 20
-1.033247756856435
 10
-2.757827570656357
 20
-1.589980401922068
  0
LWPOLYLINE
  5
8F7
330
1F
100
AcDbEntity
  8
CUTLINE
 62
     7
100
AcDbPolyline
 90
        2
 70
     0
 43
0.0
 10
-2.757827570656357
 20
-1.589980401922068
 10
-2.83038665948053
 20
-2.826445631314986
  0
LINE
  5
8F8
330
1F
100
AcDbEntity
  8
0
  6
ACAD_ISO03W100
 62
     7
 48
0.005
370
    50
100
AcDbLine
 10
-2.757827570656357
 20
-1.589980401922068
 30
0.0
 11
-1.589115573781991
 21
-0.9161653871826811
 31
0.0
  0
LINE
  5
8F9
330
1F
100
AcDbEntity
  8
0
  6
ACAD_ISO03W100
 62
     7
 48
0.005
370
    50
100
AcDbLine
 10
-0.129950700460844
 20
-0.0749187256280832
 30
0.0
 11
-1.128842469654436
 21
-0.6507963324664967
 31
0.0
  0
LWPOLYLINE
  5
8FA
330
1F
100
AcDbEntity
  8
0
  6
ACAD_ISO03W100
 62
     7
 48
0.005
370
    50
100
AcDbPolyline
 90
        2
 70
     0
 43
0.0
 10
-1.128842469654436
 20
-0.6507963324664967
 10
-1.333404779481569
 20
-1.331502365106658
  0
LWPOLYLINE
  5
8FB
330
1F
100
AcDbEntity
  8
0
  6
ACAD_ISO03W100
 62
     7
 48
0.005
370
    50
100
AcDbPolyline
 90
        2
 70
     0
 43
0.0
 10
-1.820927065719573
 20
-0.4848620853794462
 10
-1.128842469654436
 20
-0.6507963324664967
  0
LWPOLYLINE
  5
8FC
330
1F
100
AcDbEntity
  8
0
  6
ACAD_ISO03W100
 62
     7
 48
0.005
370
    50
100
AcDbPolyline
 90
        2
 70
     0
 43
0.0
 10
-2.2272641196706
 20
-0.5930582311584166
 10
-1.820794051007707
 20
-0.4853399080786481
  0
LWPOLYLINE
  5
8FD
330
1F
100
AcDbEntity
  8
MOUNTAINLINE
 62
     7
370
    50
100
AcDbPolyline
 90
        2
 70
     0
 43
0.0
 10
-3.864244564858352
 20
-1.033247756856435
 10
-2.2272641196706
 20
-0.5930582311584166
  0
LWPOLYLINE
  5
8FE
330
1F
100
AcDbEntity
  8
MOUNTAINLINE
 62
     7
370
    50
100
AcDbPolyline
 90
        2
 70
     0
 43
0.0
 10
-1.589115573781991
 20
-0.9161653871826811
 10
-2.226946625358172
 20
-0.5942194561047725
  0
LWPOLYLINE
  5
8FF
330
1F
100
AcDbEntity
  8
MOUNTAINLINE
 62
     7
370
    50
100
AcDbPolyline
 90
        2
 70
     0
 43
0.0
 10
-1.630920498378542
 20
-1.628633796162189
 10
-1.589115573781991
 20
-0.9161653871826811
  0
LWPOLYLINE
  5
900
330
1F
100
AcDbEntity
  8
MOUNTAINLINE
 62
     7
370
    50
100
AcDbPolyline
 90
        2
 70
     0
 43
0.0
 10
-0.1449494696033787
 20
-0.0385960005920197
 10
-1.820927065719573
 20
-0.4848620853794462
  0
LWPOLYLINE
  5
901
330
1F
100
AcDbEntity
  8
MOUNTAINLINE
 62
     7
370
    50
100
AcDbPolyline
 90
        2
 70
     0
 43
0.0
 10
-1.128842469654436
 20
-0.6507963324664967
 10
-1.589115573781991
 20
-0.9161653871826811
  0
LWPOLYLINE
  5
902
330
1F
100
AcDbEntity
  8
CUTLINE
 62
     7
100
AcDbPolyline
 90
        2
 70
     0
 43
0.0
 10
-2.82991008117506
 20
-2.826941088270136
 10
-1.593358534484495
 20
-2.755877204912081
  0
LWPOLYLINE
  5
903
330
1F
100
AcDbEntity
  8
CUTLINE
 62
     7
100
AcDbPolyline
 90
        2
 70
     0
 43
0.0
 10
-1.593358534484495
 20
-2.755877204912081
 10
-1.037963933985222
 20
-3.862967048874589
  0
LINE
  5
904
330
1F
100
AcDbEntity
  8
0
  6
ACAD_ISO03W100
 62
     7
 48
0.005
370
    50
100
AcDbLine
 10
-1.593358534484495
 20
-2.755877204912081
 30
0.0
 11
-0.9181317628533491
 21
-1.587980286259204
 31
0.0
  0
LINE
  5
905
330
1F
100
AcDbEntity
  8
0
  6
ACAD_ISO03W100
 62
     7
 48
0.005
370
    50
100
AcDbLine
 10
-0.0750812450246315
 20
-0.1298568698434983
 30
0.0
 11
-0.6522080893582578
 21
-1.128027391432947
 31
0.0
  0
LWPOLYLINE
  5
906
330
1F
100
AcDbEntity
  8
0
  6
ACAD_ISO03W100
 62
     7
 48
0.005
370
    50
100
AcDbPolyline
 90
        2
 70
     0
 43
0.0
 10
-0.6522080893582578
 20
-1.128027391432947
 10
-0.489011230005298
 20
-1.819817263122214
  0
LWPOLYLINE
  5
907
330
1F
100
AcDbEntity
  8
0
  6
ACAD_ISO03W100
 62
     7
 48
0.005
370
    50
100
AcDbPolyline
 90
        2
 70
     0
 43
0.0
 10
-1.334538054662084
 20
-1.330366416130286
 10
-0.6522080893582578
 20
-1.128027391432947
  0
LWPOLYLINE
  5
908
330
1F
100
AcDbEntity
  8
0
  6
ACAD_ISO03W100
 62
     7
 48
0.005
370
    50
100
AcDbPolyline
 90
        2
 70
     0
 43
0.0
 10
-1.632338192993115
 20
-1.627235553941952
 10
-1.33418394919293
 20
-1.330713715370367
  0
LWPOLYLINE
  5
909
330
1F
100
AcDbEntity
  8
MOUNTAINLINE
 62
     7
370
    50
100
AcDbPolyline
 90
        2
 70
     0
 43
0.0
 10
-2.82991008117506
 20
-2.826941088270136
 10
-1.632338192993115
 20
-1.627235553941952
  0
LWPOLYLINE
  5
90A
330
1F
100
AcDbEntity
  8
MOUNTAINLINE
 62
     7
370
    50
100
AcDbPolyline
 90
        2
 70
     0
 43
0.0
 10
-0.9181317628533491
 20
-1.587980286259204
 10
-1.631482622379818
 20
-1.628082457088791
  0
LWPOLYLINE
  5
90B
330
1F
100
AcDbEntity
  8
MOUNTAINLINE
 62
     7
370
    50
100
AcDbPolyline
 90
        2
 70
     0
 43
0.0
 10
-0.5981016850675004
 20
-2.225898490127614
 10
-0.9181317628533491
 20
-1.587980286259204
  0
LWPOLYLINE
  5
90C
330
1F
100
AcDbEntity
  8
MOUNTAINLINE
 62
     7
370
    50
100
AcDbPolyline
 90
        2
 70
     0
 43
0.0
 10
-0.1062319226455965
 20
-0.1058998517988577
 10
-1.334538054662084
 20
-1.330366416130286
  0
LWPOLYLINE
  5
90D
330
1F
100
AcDbEntity
  8
MOUNTAINLINE
 62
     7
370
    50
100
AcDbPolyline
 90
        2
 70
     0
 43
0.0
 10
-0.6522080893582578
 20
-1.128027391432947
 10
-0.9181317628533491
 20
-1.587980286259204
  0
LWPOLYLINE
  5
90E
330
1F
100
AcDbEntity
  8
CUTLINE
 62
     7
100
AcDbPolyline
 90
        2
 70
     0
 43
0.0
 10
-1.037303476588217
 20
-3.863157838031495
 10
-0.0019503657442766
 20
-3.183338936406563
  0
LWPOLYLINE
  5
90F
330
1F
100
AcDbEntity
  8
CUTLINE
 62
     7
100
AcDbPolyline
 90
        2
 70
     0
 43
0.0
 10
-0.0019503657442766
 20
-3.183338936406563
 10
1.032580389394057
 20
-3.864409565300208
  0
LINE
  5
910
330
1F
100
AcDbEntity
  8
0
  6
ACAD_ISO03W100
 62
     7
 48
0.005
370
    50
100
AcDbLine
 10
-0.0019503657442766
 20
-3.183338936406563
 30
0.0
 11
-0.0011352875227885
 21
-1.83429715003603
 31
0.0
  0
LINE
  5
911
330
1F
100
AcDbEntity
  8
0
  6
ACAD_ISO03W100
 62
     7
 48
0.005
370
    50
100
AcDbLine
 10
-0.0000938306173457
 20
-0.1499999706527146
 30
0.0
 11
-0.0008150782214889
 21
-1.303004421824754
 31
0.0
  0
LWPOLYLINE
  5
912
330
1F
100
AcDbEntity
  8
0
  6
ACAD_ISO03W100
 62
     7
 48
0.005
370
    50
100
AcDbPolyline
 90
        2
 70
     0
 43
0.0
 10
-0.0008150782214889
 20
-1.303004421824754
 10
0.4864124836406435
 20
-1.820513595111956
  0
LWPOLYLINE
  5
913
330
1F
100
AcDbEntity
  8
0
  6
ACAD_ISO03W100
 62
     7
 48
0.005
370
    50
100
AcDbPolyline
 90
        2
 70
     0
 43
0.0
 10
-0.4905606495892878
 20
-1.81940014004153
 10
-0.0008150782214889
 20
-1.303004421824754
  0
LWPOLYLINE
  5
914
330
1F
100
AcDbEntity
  8
0
  6
ACAD_ISO03W100
 62
     7
 48
0.005
370
    50
100
AcDbPolyline
 90
        2
 70
     0
 43
0.0
 10
-0.6000285657286483
 20
-2.225396424151532
 10
-0.4900803356373411
 20
-1.819523857271578
  0
LWPOLYLINE
  5
915
330
1F
100
AcDbEntity
  8
MOUNTAINLINE
 62
     7
370
    50
100
AcDbPolyline
 90
        2
 70
     0
 43
0.0
 10
-1.037303476588217
 20
-3.863157838031495
 10
-0.6000285657286483
 20
-2.225396424151532
  0
LWPOLYLINE
  5
916
330
1F
100
AcDbEntity
  8
MOUNTAINLINE
 62
     7
370
    50
100
AcDbPolyline
 90
        2
 70
     0
 43
0.0
 10
-0.0011352875227885
 20
-1.83429715003603
 10
-0.5988641682693818
 20
-2.22570207848459
  0
LWPOLYLINE
  5
917
330
1F
100
AcDbEntity
  8
MOUNTAINLINE
 62
     7
370
    50
100
AcDbPolyline
 90
        2
 70
     0
 43
0.0
 10
0.5949779917490715
 20
-2.22673548122969
 10
-0.0011352875227885
 20
-1.83429715003603
  0
LWPOLYLINE
  5
918
330
1F
100
AcDbEntity
  8
MOUNTAINLINE
 62
     7
370
    50
100
AcDbPolyline
 90
        2
 70
     0
 43
0.0
 10
-0.0390496178045211
 20
-0.1448279232376162
 10
-0.4905606495892878
 20
-1.81940014004153
  0
LWPOLYLINE
  5
919
330
1F
100
AcDbEntity
  8
MOUNTAINLINE
 62
     7
370
    50
100
AcDbPolyline
 90
        2
 70
     0
 43
0.0
 10
-0.0008150782214889
 20
-1.303004421824754
 10
-0.0011352875227885
 20
-1.83429715003603
  0
LWPOLYLINE
  5
91A
330
1F
100
AcDbEntity
  8
CUTLINE
 62
     7
100
AcDbPolyline
 90
        2
 70
     0
 43
0.0
 10
1.033247756856433
 20
-3.864244564858353
 10
1.589980401922066
 20
-2.757827570656357
  0
LWPOLYLINE
  5
91B
330
1F
100
AcDbEntity
  8
CUTLINE
 62
     7
100
AcDbPolyline
 90
        2
 70
     0
 43
0.0
 10
1.589980401922066
 20
-2.757827570656357
 10
2.826445631314984
 20
-2.830386659480532
  0
LINE
  5
91C
330
1F
100
AcDbEntity
  8
0
  6
ACAD_ISO03W100
 62
     7
 48
0.005
370
    50
100
AcDbLine
 10
1.589980401922066
 20
-2.757827570656357
 30
0.0
 11
0.9161653871826803
 21
-1.589115573781992
 31
0.0
  0
LINE
  5
91D
330
1F
100
AcDbEntity
  8
0
  6
ACAD_ISO03W100
 62
     7
 48
0.005
370
    50
100
AcDbLine
 10
0.0749187256280831
 20
-0.129950700460844
 30
0.0
 11
0.650796332466496
 21
-1.128842469654436
 31
0.0
  0
LWPOLYLINE
  5
91E
330
1F
100
AcDbEntity
  8
0
  6
ACAD_ISO03W100
 62
     7
 48
0.005
370
    50
100
AcDbPolyline
 90
        2
 70
     0
 43
0.0
 10
0.650796332466496
 20
-1.128842469654436
 10
1.331502365106657
 20
-1.33340477948157
  0
LWPOLYLINE
  5
91F
330
1F
100
AcDbEntity
  8
0
  6
ACAD_ISO03W100
 62
     7
 48
0.005
370
    50
100
AcDbPolyline
 90
        2
 70
     0
 43
0.0
 10
0.4848620853794453
 20
-1.820927065719574
 10
0.650796332466496
 20
-1.128842469654436
  0
LWPOLYLINE
  5
920
330
1F
100
AcDbEntity
  8
0
  6
ACAD_ISO03W100
 62
     7
 48
0.005
370
    50
100
AcDbPolyline
 90
        2
 70
     0
 43
0.0
 10
0.5930582311584153
 20
-2.2272641196706
 10
0.4853399080786473
 20
-1.820794051007708
  0
LWPOLYLINE
  5
921
330
1F
100
AcDbEntity
  8
MOUNTAINLINE
 62
     7
370
    50
100
AcDbPolyline
 90
        2
 70
     0
 43
0.0
 10
1.033247756856433
 20
-3.864244564858353
 10
0.5930582311584153
 20
-2.2272641196706
  0
LWPOLYLINE
  5
922
330
1F
100
AcDbEntity
  8
MOUNTAINLINE
 62
     7
370
    50
100
AcDbPolyline
 90
        2
 70
     0
 43
0.0
 10
0.9161653871826803
 20
-1.589115573781992
 10
0.5942194561047712
 20
-2.226946625358172
  0
LWPOLYLINE
  5
923
330
1F
100
AcDbEntity
  8
MOUNTAINLINE
 62
     7
370
    50
100
AcDbPolyline
 90
        2
 70
     0
 43
0.0
 10
1.628633796162188
 20
-1.630920498378543
 10
0.9161653871826803
 20
-1.589115573781992
  0
LWPOLYLINE
  5
924
330
1F
100
AcDbEntity
  8
MOUNTAINLINE
 62
     7
370
    50
100
AcDbPolyline
 90
        2
 70
     0
 43
0.0
 10
0.0385960005920196
 20
-0.1449494696033787
 10
0.4848620853794453
 20
-1.820927065719574
  0
LWPOLYLINE
  5
925
330
1F
100
AcDbEntity
  8
MOUNTAINLINE
 62
     7
370
    50
100
AcDbPolyline
 90
        2
 70
     0
 43
0.0
 10
0.650796332466496
 20
-1.128842469654436
 10
0.9161653871826803
 20
-1.589115573781992
  0
LWPOLYLINE
  5
926
330
1F
100
AcDbEntity
  8
CUTLINE
 62
     7
100
AcDbPolyline
 90
        2
 70
     0
 43
0.0
 10
2.826941088270135
 20
-2.82991008117506
 10
2.755877204912081
 20
-1.593358534484495
  0
LWPOLYLINE
  5
927
330
1F
100
AcDbEntity
  8
CUTLINE
 62
     7
100
AcDbPolyline
 90
        2
 70
     0
 43
0.0
 10
2.755877204912081
 20
-1.593358534484495
 10
3.862967048874588
 20
-1.037963933985222
  0
LINE
  5
928
330
1F
100
AcDbEntity
  8
0
  6
ACAD_ISO03W100
 62
     7
 48
0.005
370
    50
100
AcDbLine
 10
2.755877204912081
 20
-1.593358534484495
 30
0.0
 11
1.587980286259203
 21
-0.9181317628533493
 31
0.0
  0
LINE
  5
929
330
1F
100
AcDbEntity
  8
0
  6
ACAD_ISO03W100
 62
     7
 48
0.005
370
    50
100
AcDbLine
 10
0.1298568698434983
 20
-0.0750812450246315
 30
0.0
 11
1.128027391432947
 21
-0.652208089358258
 31
0.0
  0
LWPOLYLINE
  5
92A
330
1F
100
AcDbEntity
  8
0
  6
ACAD_ISO03W100
 62
     7
 48
0.005
370
    50
100
AcDbPolyline
 90
        2
 70
     0
 43
0.0
 10
1.128027391432947
 20
-0.652208089358258
 10
1.819817263122213
 20
-0.4890112300052982
  0
LWPOLYLINE
  5
92B
330
1F
100
AcDbEntity
  8
0
  6
ACAD_ISO03W100
 62
     7
 48
0.005
370
    50
100
AcDbPolyline
 90
        2
 70
     0
 43
0.0
 10
1.330366416130286
 20
-1.334538054662084
 10
1.128027391432947
 20
-0.652208089358258
  0
LWPOLYLINE
  5
92C
330
1F
100
AcDbEntity
  8
0
  6
ACAD_ISO03W100
 62
     7
 48
0.005
370
    50
100
AcDbPolyline
 90
        2
 70
     0
 43
0.0
 10
1.627235553941952
 20
-1.632338192993115
 10
1.330713715370367
 20
-1.33418394919293
  0
LWPOLYLINE
  5
92D
330
1F
100
AcDbEntity
  8
MOUNTAINLINE
 62
     7
370
    50
100
AcDbPolyline
 90
        2
 70
     0
 43
0.0
 10
2.826941088270135
 20
-2.82991008117506
 10
1.627235553941952
 20
-1.632338192993115
  0
LWPOLYLINE
  5
92E
330
1F
100
AcDbEntity
  8
MOUNTAINLINE
 62
     7
370
    50
100
AcDbPolyline
 90
        2
 70
     0
 43
0.0
 10
1.587980286259203
 20
-0.9181317628533493
 10
1.62808245708879
 20
-1.631482622379818
  0
LWPOLYLINE
  5
92F
330
1F
100
AcDbEntity
  8
MOUNTAINLINE
 62
     7
370
    50
100
AcDbPolyline
 90
        2
 70
     0
 43
0.0
 10
2.225898490127614
 20
-0.5981016850675008
 10
1.587980286259203
 20
-0.9181317628533493
  0
LWPOLYLINE
  5
930
330
1F
100
AcDbEntity
  8
MOUNTAINLINE
 62
     7
370
    50
100
AcDbPolyline
 90
        2
 70
     0
 43
0.0
 10
0.1058998517988576
 20
-0.1062319226455964
 10
1.330366416130286
 20
-1.334538054662084
  0
LWPOLYLINE
  5
931
330
1F
100
AcDbEntity
  8
MOUNTAINLINE
 62
     7
370
    50
100
AcDbPolyline
 90
        2
 70
     0
 43
0.0
 10
1.128027391432947
 20
-0.652208089358258
 10
1.587980286259203
 20
-0.9181317628533493
  0
LWPOLYLINE
  5
932
330
1F
100
AcDbEntity
  8
CUTLINE
 62
     7
100
AcDbPolyline
 90
        2
 70
     0
 43
0.0
 10
3.863157838031495
 20
-1.037303476588216
 10
3.183338936406563
 20
-0.0019503657442753
  0
LWPOLYLINE
  5
933
330
1F
100
AcDbEntity
  8
CUTLINE
 62
     7
100
AcDbPolyline
 90
        2
 70
     0
 43
0.0
 10
3.183338936406563
 20
-0.0019503657442753
 10
3.864409565300207
 20
1.032580389394058
  0
LINE
  5
934
330
1F
100
AcDbEntity
  8
0
  6
ACAD_ISO03W100
 62
     7
 48
0.005
370
    50
100
AcDbLine
 10
3.183338936406563
 20
-0.0019503657442753
 30
0.0
 11
1.83429715003603
 21
-0.0011352875227878
 31
0.0
  0
LINE
  5
935
330
1F
100
AcDbEntity
  8
0
  6
ACAD_ISO03W100
 62
     7
 48
0.005
370
    50
100
AcDbLine
 10
0.1499999706527146
 20
-0.0000938306173457
 30
0.0
 11
1.303004421824754
 21
-0.0008150782214884
 31
0.0
  0
LWPOLYLINE
  5
936
330
1F
100
AcDbEntity
  8
0
  6
ACAD_ISO03W100
 62
     7
 48
0.005
370
    50
100
AcDbPolyline
 90
        2
 70
     0
 43
0.0
 10
1.303004421824754
 20
-0.0008150782214884
 10
1.820513595111956
 20
0.4864124836406442
  0
LWPOLYLINE
  5
937
330
1F
100
AcDbEntity
  8
0
  6
ACAD_ISO03W100
 62
     7
 48
0.005
370
    50
100
AcDbPolyline
 90
        2
 70
     0
 43
0.0
 10
1.81940014004153
 20
-0.4905606495892871
 10
1.303004421824754
 20
-0.0008150782214884
  0
LWPOLYLINE
  5
938
330
1F
100
AcDbEntity
  8
0
  6
ACAD_ISO03W100
 62
     7
 48
0.005
370
    50
100
AcDbPolyline
 90
        2
 70
     0
 43
0.0
 10
2.225396424151532
 20
-0.6000285657286475
 10
1.819523857271578
 20
-0.4900803356373404
  0
LWPOLYLINE
  5
939
330
1F
100
AcDbEntity
  8
MOUNTAINLINE
 62
     7
370
    50
100
AcDbPolyline
 90
        2
 70
     0
 43
0.0
 10
3.863157838031495
 20
-1.037303476588216
 10
2.225396424151532
 20
-0.6000285657286475
  0
LWPOLYLINE
  5
93A
330
1F
100
AcDbEntity
  8
MOUNTAINLINE
 62
     7
370
    50
100
AcDbPolyline
 90
        2
 70
     0
 43
0.0
 10
1.83429715003603
 20
-0.0011352875227878
 10
2.22570207848459
 20
-0.598864168269381
  0
LWPOLYLINE
  5
93B
330
1F
100
AcDbEntity
  8
MOUNTAINLINE
 62
     7
370
    50
100
AcDbPolyline
 90
        2
 70
     0
 43
0.0
 10
2.226735481229689
 20
0.5949779917490723
 10
1.83429715003603
 20
-0.0011352875227878
  0
LWPOLYLINE
  5
93C
330
1F
100
AcDbEntity
  8
MOUNTAINLINE
 62
     7
370
    50
100
AcDbPolyline
 90
        2
 70
     0
 43
0.0
 10
0.1448279232376162
 20
-0.0390496178045211
 10
1.81940014004153
 20
-0.4905606495892871
  0
LWPOLYLINE
  5
93D
330
1F
100
AcDbEntity
  8
MOUNTAINLINE
 62
     7
370
    50
100
AcDbPolyline
 90
        2
 70
     0
 43
0.0
 10
1.303004421824754
 20
-0.0008150782214884
 10
1.83429715003603
 20
-0.0011352875227878
  0
LWPOLYLINE
  5
93E
330
1F
100
AcDbEntity
  8
CUTLINE
 62
     7
100
AcDbPolyline
 90
        2
 70
     0
 43
0.0
 10
3.864244564858352
 20
1.033247756856436
 10
2.757827570656356
 20
1.589980401922069
  0
LWPOLYLINE
  5
93F
330
1F
100
AcDbEntity
  8
CUTLINE
 62
     7
100
AcDbPolyline
 90
        2
 70
     0
 43
0.0
 10
2.757827570656356
 20
1.589980401922069
 10
2.830386659480529
 20
2.826445631314987
  0
LINE
  5
940
330
1F
100
AcDbEntity
  8
0
  6
ACAD_ISO03W100
 62
     7
 48
0.005
370
    50
100
AcDbLine
 10
2.757827570656356
 20
1.589980401922069
 30
0.0
 11
1.589115573781991
 21
0.9161653871826818
 31
0.0
  0
LINE
  5
941
330
1F
100
AcDbEntity
  8
0
  6
ACAD_ISO03W100
 62
     7
 48
0.005
370
    50
100
AcDbLine
 10
0.1299507004608439
 20
0.0749187256280832
 30
0.0
 11
1.128842469654435
 21
0.6507963324664971
 31
0.0
  0
LWPOLYLINE
  5
942
330
1F
100
AcDbEntity
  8
0
  6
ACAD_ISO03W100
 62
     7
 48
0.005
370
    50
100
AcDbPolyline
 90
        2
 70
     0
 43
0.0
 10
1.128842469654435
 20
0.6507963324664971
 10
1.333404779481569
 20
1.331502365106659
  0
LWPOLYLINE
  5
943
330
1F
100
AcDbEntity
  8
0
  6
ACAD_ISO03W100
 62
     7
 48
0.005
370
    50
100
AcDbPolyline
 90
        2
 70
     0
 43
0.0
 10
1.820927065719573
 20
0.4848620853794469
 10
1.128842469654435
 20
0.6507963324664971
  0
LWPOLYLINE
  5
944
330
1F
100
AcDbEntity
  8
0
  6
ACAD_ISO03W100
 62
     7
 48
0.005
370
    50
100
AcDbPolyline
 90
        2
 70
     0
 43
0.0
 10
2.2272641196706
 20
0.5930582311584174
 10
1.820794051007707
 20
0.4853399080786489
  0
LWPOLYLINE
  5
945
330
1F
100
AcDbEntity
  8
MOUNTAINLINE
 62
     7
370
    50
100
AcDbPolyline
 90
        2
 70
     0
 43
0.0
 10
3.864244564858352
 20
1.033247756856436
 10
2.2272641196706
 20
0.5930582311584174
  0
LWPOLYLINE
  5
946
330
1F
100
AcDbEntity
  8
MOUNTAINLINE
 62
     7
370
    50
100
AcDbPolyline
 90
        2
 70
     0
 43
0.0
 10
1.589115573781991
 20
0.9161653871826818
 10
2.226946625358172
 20
0.5942194561047733
  0
LWPOLYLINE
  5
947
330
1F
100
AcDbEntity
  8
MOUNTAINLINE
 62
     7
370
    50
100
AcDbPolyline
 90
        2
 70
     0
 43
0.0
 10
1.630920498378541
 20
1.62863379616219
 10
1.589115573781991
 20
0.9161653871826818
  0
LWPOLYLINE
  5
948
330
1F
100
AcDbEntity
  8
MOUNTAINLINE
 62
     7
370
    50
100
AcDbPolyline
 90
        2
 70
     0
 43
0.0
 10
0.1449494696033787
 20
0.0385960005920198
 10
1.820927065719573
 20
0.4848620853794469
  0
LWPOLYLINE
  5
949
330
1F
100
AcDbEntity
  8
MOUNTAINLINE
 62
     7
370
    50
100
AcDbPolyline
 90
        2
 70
     0
 43
0.0
 10
1.128842469654435
 20
0.6507963324664971
 10
1.589115573781991
 20
0.9161653871826818
  0
LWPOLYLINE
  5
94A
330
1F
100
AcDbEntity
  8
CUTLINE
 62
     7
100
AcDbPolyline
 90
        2
 70
     0
 43
0.0
 10
2.829910081175058
 20
2.826941088270137
 10
1.593358534484493
 20
2.755877204912082
  0
LWPOLYLINE
  5
94B
330
1F
100
AcDbEntity
  8
CUTLINE
 62
     7
100
AcDbPolyline
 90
        2
 70
     0
 43
0.0
 10
1.593358534484493
 20
2.755877204912082
 10
1.037963933985219
 20
3.862967048874589
  0
LINE
  5
94C
330
1F
100
AcDbEntity
  8
0
  6
ACAD_ISO03W100
 62
     7
 48
0.005
370
    50
100
AcDbLine
 10
1.593358534484493
 20
2.755877204912082
 30
0.0
 11
0.9181317628533477
 21
1.587980286259204
 31
0.0
  0
LINE
  5
94D
330
1F
100
AcDbEntity
  8
0
  6
ACAD_ISO03W100
 62
     7
 48
0.005
370
    50
100
AcDbLine
 10
0.0750812450246314
 20
0.1298568698434984
 30
0.0
 11
0.6522080893582569
 21
1.128027391432947
 31
0.0
  0
LWPOLYLINE
  5
94E
330
1F
100
AcDbEntity
  8
0
  6
ACAD_ISO03W100
 62
     7
 48
0.005
370
    50
100
AcDbPolyline
 90
        2
 70
     0
 43
0.0
 10
0.6522080893582569
 20
1.128027391432947
 10
0.4890112300052967
 20
1.819817263122214
  0
LWPOLYLINE
  5
94F
330
1F
100
AcDbEntity
  8
0
  6
ACAD_ISO03W100
 62
     7
 48
0.005
370
    50
100
AcDbPolyline
 90
        2
 70
     0
 43
0.0
 10
1.334538054662083
 20
1.330366416130287
 10
0.6522080893582569
 20
1.128027391432947
  0
LWPOLYLINE
  5
950
330
1F
100
AcDbEntity
  8
0
  6
ACAD_ISO03W100
 62
     7
 48
0.005
370
    50
100
AcDbPolyline
 90
        2
 70
     0
 43
0.0
 10
1.632338192993114
 20
1.627235553941953
 10
1.334183949192929
 20
1.330713715370368
  0
LWPOLYLINE
  5
951
330
1F
100
AcDbEntity
  8
MOUNTAINLINE
 62
     7
370
    50
100
AcDbPolyline
 90
        2
 70
     0
 43
0.0
 10
2.829910081175058
 20
2.826941088270137
 10
1.632338192993114
 20
1.627235553941953
  0
LWPOLYLINE
  5
952
330
1F
100
AcDbEntity
  8
MOUNTAINLINE
 62
     7
370
    50
100
AcDbPolyline
 90
        2
 70
     0
 43
0.0
 10
0.9181317628533477
 20
1.587980286259204
 10
1.631482622379816
 20
1.628082457088792
  0
LWPOLYLINE
  5
953
330
1F
100
AcDbEntity
  8
MOUNTAINLINE
 62
     7
370
    50
100
AcDbPolyline
 90
        2
 70
     0
 43
0.0
 10
0.598101685067499
 20
2.225898490127614
 10
0.9181317628533477
 20
1.587980286259204
  0
LWPOLYLINE
  5
954
330
1F
100
AcDbEntity
  8
MOUNTAINLINE
 62
     7
370
    50
100
AcDbPolyline
 90
        2
 70
     0
 43
0.0
 10
0.1062319226455963
 20
0.1058998517988577
 10
1.334538054662083
 20
1.330366416130287
  0
LWPOLYLINE
  5
955
330
1F
100
AcDbEntity
  8
MOUNTAINLINE
 62
     7
370
    50
100
AcDbPolyline
 90
        2
 70
     0
 43
0.0
 10
0.6522080893582569
 20
1.128027391432947
 10
0.9181317628533477
 20
1.587980286259204
  0
TEXT
  5
963
330
1F
100
AcDbEntity
  8
0
100
AcDbText
 10
-0.4927957308689486
 20
2.58587655631851
 30
0.0
 40
0.15
  1
Medallion_1
100
AcDbText
  0
CIRCLE
  5
9DA
330
1F
100
AcDbEntity
  8
0
100
AcDbCircle
 10
0.0
 20
0.0
 30
0.0
 40
0.15
  0
LWPOLYLINE
  5
A28
330
1F
100
AcDbEntity
  8
VALLEYLINE
100
AcDbPolyline
 90
        4
 70
     1
 43
0.0
 10
-4.099999999999999
 20
-4.099999999999999
 10
4.099999999999999
 20
-4.099999999999999
 10
4.099999999999999
 20
4.099999999999999
 10
-4.099999999999999
 20
4.099999999999999
  0
ENDSEC
  0
SECTION
  2
OBJECTS
  0
DICTIONARY
  5
C
330
0
100
AcDbDictionary
281
     1
  3
ACAD_CIP_PREVIOUS_PRODUCT_INFO
350
78F
  3
ACAD_COLOR
350
770
  3
ACAD_DETAILVIEWSTYLE
350
789
  3
ACAD_GROUP
350
D
  3
ACAD_LAYOUT
350
1A
  3
ACAD_MATERIAL
350
74D
  3
ACAD_MLEADERSTYLE
350
784
  3
ACAD_MLINESTYLE
350
17
  3
ACAD_PLOTSETTINGS
350
19
  3
ACAD_PLOTSTYLENAME
350
74B
  3
ACAD_SCALELIST
350
772
  3
ACAD_SECTIONVIEWSTYLE
350
786
  3
ACAD_TABLESTYLE
350
748
  3
ACAD_VISUALSTYLE
350
2A
  3
ACDB_RECOMPOSE_DATA
350
A4C
  3
AcDbVariableDictionary
350
8BD
1001
ACAD
1000
TREAT_AS_HARD
1070
     0
  0
DICTIONARY
  5
7B3
330
2
100
AcDbDictionary
280
     1
281
     1
  3
ACAD_LAYERSTATES
360
7B4
  0
DICTIONARY
  5
791
330
10
100
AcDbDictionary
280
     1
281
     1
  3
ADSK_XREC_LAYER_RECONCILED
360
792
  0
DICTIONARY
  5
793
330
3B
100
AcDbDictionary
280
     1
281
     1
  3
ADSK_XREC_LAYER_RECONCILED
360
794
  0
DICTIONARY
  5
795
330
FC
100
AcDbDictionary
280
     1
281
     1
  3
ADSK_XREC_LAYER_RECONCILED
360
796
  0
DICTIONARY
  5
797
330
40C
100
AcDbDictionary
280
     1
281
     1
  3
ADSK_XREC_LAYER_RECONCILED
360
798
  0
DICTIONARY
  5
799
330
745
100
AcDbDictionary
280
     1
281
     1
  3
ADSK_XREC_LAYER_RECONCILED
360
79A
  0
DICTIONARY
  5
7C7
330
1F
100
AcDbDictionary
280
     1
281
     1
  3
ACAD_SORTENTS
360
7C8
  0
XRECORD
  5
78F
102
{ACAD_REACTORS
330
C
102
}
330
C
100
AcDbXrecord
280
     1
300
ACD
300
2013
300
ACD_F_S
  0
DICTIONARY
  5
770
102
{ACAD_REACTORS
330
C
102
}
330
C
100
AcDbDictionary
281
     1
  0
DICTIONARY
  5
789
102
{ACAD_REACTORS
330
C
102
}
330
C
100
AcDbDictionary
281
     1
  3
Imperial24
350
78A
  0
DICTIONARY
  5
D
102
{ACAD_REACTORS
330
C
102
}
330
C
100
AcDbDictionary
281
     1
1001
ACAD
1000
TREAT_AS_HARD
1070
     0
  0
DICTIONARY
  5
1A
102
{ACAD_REACTORS
330
C
102
}
330
C
100
AcDbDictionary
281
     1
  3
Layout1
350
78C
  3
Model
350
78B
1001
ACAD
1000
TREAT_AS_HARD
1070
     0
  0
DICTIONARY
  5
74D
102
{ACAD_REACTORS
330
C
102
}
330
C
100
AcDbDictionary
281
     1
  3
ByBlock
350
756
  3
ByLayer
350
74E
  3
Global
350
75E
  0
DICTIONARY
  5
784
102
{ACAD_REACTORS
330
C
102
}
330
C
100
AcDbDictionary
281
     1
  3
Standard
350
785
  0
DICTIONARY
  5
17
102
{ACAD_REACTORS
330
C
102
}
330
C
100
AcDbDictionary
281
     1
  3
STANDARD
350
18
1001
ACAD
1000
TREAT_AS_HARD
1070
     0
  0
DICTIONARY
  5
19
102
{ACAD_REACTORS
330
C
102
}
330
C
100
AcDbDictionary
281
     1
1001
ACAD
1000
TREAT_AS_HARD
1070
     0
  0
ACDBDICTIONARYWDFLT
  5
74B
102
{ACAD_REACTORS
330
C
102
}
330
C
100
AcDbDictionary
281
     1
  3
Normal
350
74C
100
AcDbDictionaryWithDefault
340
74C
  0
DICTIONARY
  5
772
102
{ACAD_REACTORS
330
C
102
}
330
C
100
AcDbDictionary
281
     1
  3
A0
350
773
  3
A1
350
774
  3
A2
350
775
  3
A3
350
776
  3
A4
350
777
  3
A5
350
778
  3
A6
350
779
  3
A7
350
77A
  3
A8
350
77B
  3
A9
350
77C
  3
B0
350
77D
  3
B1
350
77E
  3
B2
350
77F
  3
B3
350
780
  3
B4
350
781
  3
B5
350
782
  3
B6
350
783
  0
DICTIONARY
  5
786
102
{ACAD_REACTORS
330
C
102
}
330
C
100
AcDbDictionary
281
     1
  3
Imperial24
350
788
  0
DICTIONARY
  5
748
102
{ACAD_REACTORS
330
C
102
}
330
C
100
AcDbDictionary
281
     1
  3
Standard
350
771
1001
ACAD
1000
TREAT_AS_HARD
1070
     0
  0
DICTIONARY
  5
2A
102
{ACAD_REACTORS
330
C
102
}
330
C
100
AcDbDictionary
281
     1
  3
2DWIREFRAME
350
2F
  3
3D_HIDDEN
350
31
  3
3DWIREFRAME
350
30
  3
BASIC
350
32
  3
BRIGHTEN
350
36
  3
COLORCHANGE
350
3A
  3
CONCEPTUAL
350
34
  3
DIM
350
35
  3
EdgeColorOff
350
76F
  3
FACEPATTERN
350
39
  3
FLAT
350
2B
  3
FLATWITHEDGES
350
2C
  3
GOURAUD
350
2D
  3
GOURAUDWITHEDGES
350
2E
  3
Hidden
350
767
  3
JitterOff
350
76D
  3
LINEPATTERN
350
38
  3
OverhangOff
350
76E
  3
REALISTIC
350
33
  3
Shaded
350
76C
  3
Shaded with edges
350
76B
  3
Shades of Gray
350
768
  3
Sketchy
350
769
  3
THICKEN
350
37
  3
Wireframe
350
766
  3
X-Ray
350
76A
1001
ACAD
1000
TREAT_AS_HARD
1070
     0
  0
XRECORD
  5
A4C
102
{ACAD_REACTORS
330
C
102
}
330
C
100
AcDbXrecord
280
     1
 90
        1
330
771
  0
DICTIONARY
  5
8BD
102
{ACAD_REACTORS
330
C
102
}
330
C
100
AcDbDictionary
281
     1
  3
CANNOSCALE
350
8C3
  3
CMLEADERSTYLE
350
8BF
  3
CTABLESTYLE
350
8BE
  3
CVIEWDETAILSTYLE
350
8C0
  3
CVIEWSECTIONSTYLE
350
8C1
  3
LAYEREVAL
350
8C5
  3
LAYERNOTIFY
350
8C6
  3
LIGHTINGUNITS
350
8C4
  3
MSLTSCALE
350
8C2
  0
DICTIONARY
  5
7B4
102
{ACAD_REACTORS
330
7B3
102
}
330
7B3
100
AcDbDictionary
281
     1
  0
XRECORD
  5
792
102
{ACAD_REACTORS
330
791
102
}
330
791
100
AcDbXrecord
280
     1
290
     1
  0
XRECORD
  5
794
102
{ACAD_REACTORS
330
793
102
}
330
793
100
AcDbXrecord
280
     1
290
     1
  0
XRECORD
  5
796
102
{ACAD_REACTORS
330
795
102
}
330
795
100
AcDbXrecord
280
     1
290
     1
  0
XRECORD
  5
798
102
{ACAD_REACTORS
330
797
102
}
330
797
100
AcDbXrecord
280
     1
290
     1
  0
XRECORD
  5
79A
102
{ACAD_REACTORS
330
799
102
}
330
799
100
AcDbXrecord
280
     1
290
     1
  0
SORTENTSTABLE
  5
7C8
102
{ACAD_REACTORS
330
7C7
102
}
330
7C7
100
AcDbSortentsTable
330
1F
331
86F
  5
7FA
331
890
  5
7D7
331
845
  5
824
331
891
  5
7D6
331
7FC
  5
86D
331
7AE
  5
89F
331
7F3
  5
876
331
7AF
  5
8A0
331
7A6
  5
89E
331
7FE
  5
86B
331
7CA
  5
7F9
331
7CB
  5
7F5
331
800
  5
869
331
7D6
  5
893
331
853
  5
816
331
86E
  5
7FB
  0
ACDBDETAILVIEWSTYLE
  5
78A
102
{ACAD_REACTORS
330
789
102
}
330
789
100
AcDbModelDocViewStyle
 70
     0
  3
Imperial24
290
     0
100
AcDbDetailViewStyle
 70
     0
 71
     0
 90
        3
 71
     1
340
11
 62
   256
 40
0.24
340
0
 62
   256
 40
0.24
300

 40
0.36
280
     3
 71
     2
340
16
 90
       25
 62
   256
 71
     3
340
11
 62
   256
 40
0.24
 90
        1
 40
0.75
 90
        1
300
%<\AcVar ViewType \f "%tc1">% %<\AcVar ViewDetailId>%\PSCALE %<\AcVar ViewScale \f "%sn">%
 71
     4
340
16
 90
       25
 62
   256
340
16
 90
       25
 62
   256
280
     0
  0
LAYOUT
  5
78C
102
{ACAD_REACTORS
330
1A
102
}
330
1A
100
AcDbPlotSettings
  1

  2
NPI34B5A7 (HP LaserJet 300 colorMFP M375nw)
  4

  6

 40
0.0
 41
0.0
 42
0.0
 43
0.0
 44
0.0
 45
0.0
 46
0.0
 47
0.0
 48
0.0
 49
0.0
140
0.0
141
0.0
142
1.0
143
1.0
 70
   688
 72
     0
 73
     0
 74
     5
  7

 75
    16
147
1.0
 76
     0
 77
     2
 78
   300
148
0.0
149
0.0
100
AcDbLayout
  1
Layout1
 70
     1
 71
     1
 10
0.0
 20
0.0
 11
12.0
 21
9.0
 12
0.0
 22
0.0
 32
0.0
 14
1.000000000000000E+20
 24
1.000000000000000E+20
 34
1.000000000000000E+20
 15
-1.000000000000000E+20
 25
-1.000000000000000E+20
 35
-1.000000000000000E+20
146
0.0
 13
0.0
 23
0.0
 33
0.0
 16
1.0
 26
0.0
 36
0.0
 17
0.0
 27
1.0
 37
0.0
 76
     0
330
1B
  0
LAYOUT
  5
78B
102
{ACAD_REACTORS
330
1A
102
}
330
1A
100
AcDbPlotSettings
  1

  2
NPI34B5A7 (HP LaserJet 300 colorMFP M375nw)
  4
A4
  6

 40
5.027082920074462
 41
5.831390380859375
 42
5.069412231445312
 43
5.789093017578125
 44
210.0156707763672
 45
297.0106506347656
 46
0.0
 47
0.0
 48
0.0
 49
0.0
140
0.0
141
0.0
142
1.0
143
1.023403822037896
 70
 11952
 72
     0
 73
     1
 74
     0
  7

 75
     0
147
0.9771313908215695
 76
     0
 77
     2
 78
   300
148
2769.475982365478
149
-3669.49555136405
100
AcDbLayout
  1
Model
 70
     1
 71
     0
 10
0.0
 20
0.0
 11
12.0
 21
9.0
 12
0.0
 22
0.0
 32
0.0
 14
0.0
 24
0.0
 34
0.0
 15
0.0
 25
0.0
 35
0.0
146
0.0
 13
0.0
 23
0.0
 33
0.0
 16
1.0
 26
0.0
 36
0.0
 17
0.0
 27
1.0
 37
0.0
 76
     0
330
1F
331
29
1001
ACAD_PSEXT
1000
NPI34B5A7 (HP LaserJet 300 colorMFP M375nw)
1000
HP LJ300-400 color MFP M375-M475 PCL6 Class Driver
1000
http://[fe80::e6d5:3dff:fe43:a9cd%6]:3911/
1000

1070
     0
  0
MATERIAL
  5
756
102
{ACAD_XDICTIONARY
360
757
102
}
102
{ACAD_REACTORS
330
74D
102
}
330
74D
100
AcDbMaterial
  1
ByBlock
 72
     0
 43
0.0208333333333333
 43
0.0
 43
0.0
 43
0.0
 43
0.0
 43
0.0208333333333333
 43
0.0
 43
0.0
 43
0.0
 43
0.0
 43
1.0
 43
0.0
 43
0.0
 43
0.0
 43
0.0
 43
1.0
 77
     0
 47
0.0208333333333333
 47
0.0
 47
0.0
 47
0.0
 47
0.0
 47
0.0208333333333333
 47
0.0
 47
0.0
 47
0.0
 47
0.0
 47
1.0
 47
0.0
 47
0.0
 47
0.0
 47
0.0
 47
1.0
171
     0
 49
0.0208333333333333
 49
0.0
 49
0.0
 49
0.0
 49
0.0
 49
0.0208333333333333
 49
0.0
 49
0.0
 49
0.0
 49
0.0
 49
1.0
 49
0.0
 49
0.0
 49
0.0
 49
0.0
 49
1.0
175
     0
142
0.0208333333333333
142
0.0
142
0.0
142
0.0
142
0.0
142
0.0208333333333333
142
0.0
142
0.0
142
0.0
142
0.0
142
1.0
142
0.0
142
0.0
142
0.0
142
0.0
142
1.0
179
     0
144
0.0208333333333333
144
0.0
144
0.0
144
0.0
144
0.0
144
0.0208333333333333
144
0.0
144
0.0
144
0.0
144
0.0
144
1.0
144
0.0
144
0.0
144
0.0
144
0.0
144
1.0
147
0.0208333333333333
147
0.0
147
0.0
147
0.0
147
0.0
147
0.0208333333333333
147
0.0
147
0.0
147
0.0
147
0.0
147
1.0
147
0.0
147
0.0
147
0.0
147
0.0
147
1.0
  0
MATERIAL
  5
74E
102
{ACAD_XDICTIONARY
360
74F
102
}
102
{ACAD_REACTORS
330
74D
102
}
330
74D
100
AcDbMaterial
  1
ByLayer
 72
     0
 43
0.0208333333333333
 43
0.0
 43
0.0
 43
0.0
 43
0.0
 43
0.0208333333333333
 43
0.0
 43
0.0
 43
0.0
 43
0.0
 43
1.0
 43
0.0
 43
0.0
 43
0.0
 43
0.0
 43
1.0
 77
     0
 47
0.0208333333333333
 47
0.0
 47
0.0
 47
0.0
 47
0.0
 47
0.0208333333333333
 47
0.0
 47
0.0
 47
0.0
 47
0.0
 47
1.0
 47
0.0
 47
0.0
 47
0.0
 47
0.0
 47
1.0
171
     0
 49
0.0208333333333333
 49
0.0
 49
0.0
 49
0.0
 49
0.0
 49
0.0208333333333333
 49
0.0
 49
0.0
 49
0.0
 49
0.0
 49
1.0
 49
0.0
 49
0.0
 49
0.0
 49
0.0
 49
1.0
175
     0
142
0.0208333333333333
142
0.0
142
0.0
142
0.0
142
0.0
142
0.0208333333333333
142
0.0
142
0.0
142
0.0
142
0.0
142
1.0
142
0.0
142
0.0
142
0.0
142
0.0
142
1.0
179
     0
144
0.0208333333333333
144
0.0
144
0.0
144
0.0
144
0.0
144
0.0208333333333333
144
0.0
144
0.0
144
0.0
144
0.0
144
1.0
144
0.0
144
0.0
144
0.0
144
0.0
144
1.0
147
0.0208333333333333
147
0.0
147
0.0
147
0.0
147
0.0
147
0.0208333333333333
147
0.0
147
0.0
147
0.0
147
0.0
147
1.0
147
0.0
147
0.0
147
0.0
147
0.0
147
1.0
  0
MATERIAL
  5
75E
102
{ACAD_XDICTIONARY
360
75F
102
}
102
{ACAD_REACTORS
330
74D
102
}
330
74D
100
AcDbMaterial
  1
Global
 72
     0
 43
0.0208333333333333
 43
0.0
 43
0.0
 43
0.0
 43
0.0
 43
0.0208333333333333
 43
0.0
 43
0.0
 43
0.0
 43
0.0
 43
1.0
 43
0.0
 43
0.0
 43
0.0
 43
0.0
 43
1.0
 77
     0
 47
0.0208333333333333
 47
0.0
 47
0.0
 47
0.0
 47
0.0
 47
0.0208333333333333
 47
0.0
 47
0.0
 47
0.0
 47
0.0
 47
1.0
 47
0.0
 47
0.0
 47
0.0
 47
0.0
 47
1.0
171
     0
 49
0.0208333333333333
 49
0.0
 49
0.0
 49
0.0
 49
0.0
 49
0.0208333333333333
 49
0.0
 49
0.0
 49
0.0
 49
0.0
 49
1.0
 49
0.0
 49
0.0
 49
0.0
 49
0.0
 49
1.0
175
     0
142
0.0208333333333333
142
0.0
142
0.0
142
0.0
142
0.0
142
0.0208333333333333
142
0.0
142
0.0
142
0.0
142
0.0
142
1.0
142
0.0
142
0.0
142
0.0
142
0.0
142
1.0
179
     0
144
0.0208333333333333
144
0.0
144
0.0
144
0.0
144
0.0
144
0.0208333333333333
144
0.0
144
0.0
144
0.0
144
0.0
144
1.0
144
0.0
144
0.0
144
0.0
144
0.0
144
1.0
147
0.0208333333333333
147
0.0
147
0.0
147
0.0
147
0.0
147
0.0208333333333333
147
0.0
147
0.0
147
0.0
147
0.0
147
1.0
147
0.0
147
0.0
147
0.0
147
0.0
147
1.0
  0
MLEADERSTYLE
  5
785
102
{ACAD_REACTORS
330
784
102
}
330
784
100
AcDbMLeaderStyle
179
     2
170
     2
171
     1
172
     0
 90
        2
 40
0.0
 41
0.0
173
     1
 91
-1056964608
340
14
 92
       -2
290
     1
 42
0.09
291
     1
 43
0.36
  3
Standard
 44
0.18
300

342
11
174
     1
178
     6
175
     1
176
     0
 93
-1056964608
 45
0.18
292
     0
297
     0
 46
0.18
 94
-1056964608
 47
1.0
 49
1.0
140
1.0
293
     1
141
0.0
294
     1
177
     0
142
1.0
295
     0
296
     0
143
0.125
271
     0
272
     9
273
     9
298
     0
  0
MLINESTYLE
  5
18
102
{ACAD_REACTORS
330
17
102
}
330
17
100
AcDbMlineStyle
  2
STANDARD
 70
     0
  3

 62
   256
 51
90.0
 52
90.0
 71
     2
 49
0.5
 62
   256
  6
BYLAYER
 49
-0.5
 62
   256
  6
BYLAYER
  0
ACDBPLACEHOLDER
  5
74C
102
{ACAD_REACTORS
330
74B
102
}
330
74B
  0
SCALE
  5
773
102
{ACAD_REACTORS
330
772
102
}
330
772
100
AcDbScale
 70
     0
300
1:1
140
1.0
141
1.0
290
     1
  0
SCALE
  5
774
102
{ACAD_REACTORS
330
772
102
}
330
772
100
AcDbScale
 70
     0
300
1/128" = 1'-0"
140
0.0078125
141
12.0
290
     0
  0
SCALE
  5
775
102
{ACAD_REACTORS
330
772
102
}
330
772
100
AcDbScale
 70
     0
300
1/64" = 1'-0"
140
0.015625
141
12.0
290
     0
  0
SCALE
  5
776
102
{ACAD_REACTORS
330
772
102
}
330
772
100
AcDbScale
 70
     0
300
1/32" = 1'-0"
140
0.03125
141
12.0
290
     0
  0
SCALE
  5
777
102
{ACAD_REACTORS
330
772
102
}
330
772
100
AcDbScale
 70
     0
300
1/16" = 1'-0"
140
0.0625
141
12.0
290
     0
  0
SCALE
  5
778
102
{ACAD_REACTORS
330
772
102
}
330
772
100
AcDbScale
 70
     0
300
3/32" = 1'-0"
140
0.09375
141
12.0
290
     0
  0
SCALE
  5
779
102
{ACAD_REACTORS
330
772
102
}
330
772
100
AcDbScale
 70
     0
300
1/8" = 1'-0"
140
0.125
141
12.0
290
     0
  0
SCALE
  5
77A
102
{ACAD_REACTORS
330
772
102
}
330
772
100
AcDbScale
 70
     0
300
3/16" = 1'-0"
140
0.1875
141
12.0
290
     0
  0
SCALE
  5
77B
102
{ACAD_REACTORS
330
772
102
}
330
772
100
AcDbScale
 70
     0
300
1/4" = 1'-0"
140
0.25
141
12.0
290
     0
  0
SCALE
  5
77C
102
{ACAD_REACTORS
330
772
102
}
330
772
100
AcDbScale
 70
     0
300
3/8" = 1'-0"
140
0.375
141
12.0
290
     0
  0
SCALE
  5
77D
102
{ACAD_REACTORS
330
772
102
}
330
772
100
AcDbScale
 70
     0
300
1/2" = 1'-0"
140
0.5
141
12.0
290
     0
  0
SCALE
  5
77E
102
{ACAD_REACTORS
330
772
102
}
330
772
100
AcDbScale
 70
     0
300
3/4" = 1'-0"
140
0.75
141
12.0
290
     0
  0
SCALE
  5
77F
102
{ACAD_REACTORS
330
772
102
}
330
772
100
AcDbScale
 70
     0
300
1" = 1'-0"
140
1.0
141
12.0
290
     0
  0
SCALE
  5
780
102
{ACAD_REACTORS
330
772
102
}
330
772
100
AcDbScale
 70
     0
300
1-1/2" = 1'-0"
140
1.5
141
12.0
290
     0
  0
SCALE
  5
781
102
{ACAD_REACTORS
330
772
102
}
330
772
100
AcDbScale
 70
     0
300
3" = 1'-0"
140
3.0
141
12.0
290
     0
  0
SCALE
  5
782
102
{ACAD_REACTORS
330
772
102
}
330
772
100
AcDbScale
 70
     0
300
6" = 1'-0"
140
6.0
141
12.0
290
     0
  0
SCALE
  5
783
102
{ACAD_REACTORS
330
772
102
}
330
772
100
AcDbScale
 70
     0
300
1'-0" = 1'-0"
140
12.0
141
12.0
290
     0
  0
ACDBSECTIONVIEWSTYLE
  5
788
102
{ACAD_REACTORS
330
786
102
}
330
786
100
AcDbModelDocViewStyle
 70
     0
  3
Imperial24
290
     0
100
AcDbSectionViewStyle
 70
     0
 71
     0
 90
       78
 71
     1
340
11
 62
   256
 40
0.24
340
0
340
0
 62
   256
 40
0.24
300
I, O, Q, S, X, Z
 40
0.48
 90
        3
 40
0.18
 90
        1
 71
     2
340
787
 90
       25
 62
   256
340
16
 90
       50
 62
   256
 40
0.24
 40
0.0
 40
0.24
 71
     3
340
11
 62
   256
 40
0.24
 90
        1
 40
0.75
 90
        1
300
%<\AcVar ViewType \f "%tc1">% %<\AcVar ViewSectionStartId>%-%<\AcVar ViewSectionEndId>%\PSCALE %<\AcVar ViewScale \f "%sn">%
 71
     4
 62
   256
 62
   257
300
ANSI31
 40
1.0
 90
        0
290
     0
290
     0
 90
        6
 40
0.0
 40
1.570796326794896
 40
0.2617993877991494
 40
1.308996938995747
 40
-0.2617993877991494
 40
1.832595714594046
  0
TABLESTYLE
  5
771
102
{ACAD_XDICTIONARY
360
A4A
102
}
102
{ACAD_REACTORS
330
748
102
}
330
748
100
AcDbTableStyle
280
     0
  3
Standard
 70
     0
 71
     0
 40
0.06
 41
0.06
280
     0
281
     0
  7
STANDARD
140
0.18
170
     2
 62
     0
 63
     7
283
     0
 90
      512
 91
        0
  1

274
    -2
284
     1
 64
     0
275
    -2
285
     1
 65
     0
276
    -2
286
     1
 66
     0
277
    -2
287
     1
 67
     0
278
    -2
288
     1
 68
     0
279
    -2
289
     1
 69
     0
  7
STANDARD
140
0.25
170
     5
 62
     0
 63
     7
283
     0
 90
      512
 91
        0
  1

274
    -2
284
     1
 64
     0
275
    -2
285
     1
 65
     0
276
    -2
286
     1
 66
     0
277
    -2
287
     1
 67
     0
278
    -2
288
     1
 68
     0
279
    -2
289
     1
 69
     0
  7
STANDARD
140
0.18
170
     5
 62
     0
 63
     7
283
     0
 90
      512
 91
        0
  1

274
    -2
284
     1
 64
     0
275
    -2
285
     1
 65
     0
276
    -2
286
     1
 66
     0
277
    -2
287
     1
 67
     0
278
    -2
288
     1
 68
     0
279
    -2
289
     1
 69
     0
  0
VISUALSTYLE
  5
2F
102
{ACAD_REACTORS
330
2A
102
}
330
2A
100
AcDbVisualStyle
  2

 70
     4
177
     3
291
     0
 70
    58
 90
        0
176
     1
 90
        2
176
     1
 90
        0
176
     1
 90
        0
176
     1
 40
0.6
176
     1
 40
30.0
176
     1
 62
     7
176
     1
 90
        1
176
     1
 90
        4
176
     1
 62
     7
176
     1
 62
   257
176
     1
 90
        1
176
     1
 90
        1
176
     1
 40
1.0
176
     1
 90
        0
176
     1
 62
   257
176
     1
 40
1.0
176
     1
 90
        1
176
     1
 90
        6
176
     1
 90
        2
176
     1
 62
     7
176
     1
 90
        5
176
     1
 90
        0
176
     1
 90
        0
176
     1
290
     0
176
     1
 90
        1
176
     1
 40
0.0
176
     1
 90
        0
176
     1
290
     1
176
     1
290
     1
176
     1
290
     0
176
     1
290
     0
176
     1
290
     0
176
     1
290
     0
176
     1
290
     0
176
     1
290
     0
176
     1
290
     0
176
     1
 90
       50
176
     1
 40
0.0
176
     1
 40
1.0
176
     1
 90
        0
176
     1
 62
    18
420
        0
176
     1
 90
       50
176
     1
 90
        3
176
     1
 62
     5
420
      255
176
     1
290
     0
176
     1
 90
       50
176
     1
 90
       50
176
     1
 90
       50
176
     1
290
     0
176
     1
 90
       50
176
     1
 62
   256
176
     0
 40
1.0
176
     0
 90
        2
176
     1
  1
strokes_ogs.tif
176
     1
290
     0
176
     1
 40
1.0
176
     1
 40
1.0
176
     1
  0
VISUALSTYLE
  5
31
102
{ACAD_REACTORS
330
2A
102
}
330
2A
100
AcDbVisualStyle
  2

 70
     6
177
     3
291
     0
 70
    58
 90
        1
176
     1
 90
        2
176
     1
 90
        2
176
     1
 90
        0
176
     1
 40
0.6
176
     1
 40
30.0
176
     1
 62
     7
176
     1
 90
        2
176
     1
 90
        2
176
     1
 62
     7
176
     1
 62
   257
176
     1
 90
        2
176
     1
 90
        1
176
     1
 40
40.0
176
     1
 90
        0
176
     1
 62
   257
176
     1
 40
1.0
176
     1
 90
        1
176
     1
 90
        6
176
     1
 90
        2
176
     1
 62
     7
176
     1
 90
        3
176
     1
 90
        0
176
     1
 90
        0
176
     1
290
     0
176
     1
 90
        1
176
     1
 40
0.0
176
     1
 90
        0
176
     1
290
     0
176
     1
290
     1
176
     1
290
     1
176
     1
290
     0
176
     1
290
     0
176
     1
290
     0
176
     1
290
     0
176
     1
290
     0
176
     1
290
     0
176
     1
 90
       50
176
     1
 40
0.0
176
     1
 40
1.0
176
     1
 90
        0
176
     1
 62
    18
420
        0
176
     1
 90
       50
176
     1
 90
        3
176
     1
 62
     5
420
      255
176
     1
290
     0
176
     1
 90
       50
176
     1
 90
       50
176
     1
 90
       50
176
     1
290
     0
176
     1
 90
       50
176
     1
 62
   256
176
     0
 40
1.0
176
     0
 90
        2
176
     1
  1
strokes_ogs.tif
176
     1
290
     0
176
     1
 40
1.0
176
     1
 40
1.0
176
     1
  0
VISUALSTYLE
  5
30
102
{ACAD_REACTORS
330
2A
102
}
330
2A
100
AcDbVisualStyle
  2

 70
     5
177
     3
291
     0
 70
    58
 90
        0
176
     1
 90
        2
176
     1
 90
        0
176
     1
 90
        0
176
     1
 40
0.6
176
     1
 40
30.0
176
     1
 62
     7
176
     1
 90
        1
176
     1
 90
        4
176
     1
 62
     7
176
     1
 62
   257
176
     1
 90
        1
176
     1
 90
        1
176
     1
 40
1.0
176
     1
 90
        0
176
     1
 62
   257
176
     1
 40
1.0
176
     1
 90
        1
176
     1
 90
        6
176
     1
 90
        2
176
     1
 62
     7
176
     1
 90
        5
176
     1
 90
        0
176
     1
 90
        0
176
     1
290
     0
176
     1
 90
        1
176
     1
 40
0.0
176
     1
 90
        0
176
     1
290
     0
176
     1
290
     1
176
     1
290
     1
176
     1
290
     0
176
     1
290
     0
176
     1
290
     0
176
     1
290
     0
176
     1
290
     0
176
     1
290
     0
176
     1
 90
       50
176
     1
 40
0.0
176
     1
 40
1.0
176
     1
 90
        0
176
     1
 62
    18
420
        0
176
     1
 90
       50
176
     1
 90
        3
176
     1
 62
     5
420
      255
176
     1
290
     0
176
     1
 90
       50
176
     1
 90
       50
176
     1
 90
       50
176
     1
290
     0
176
     1
 90
       50
176
     1
 62
   256
176
     0
 40
1.0
176
     0
 90
        2
176
     1
  1
strokes_ogs.tif
176
     1
290
     0
176
     1
 40
1.0
176
     1
 40
1.0
176
     1
  0
VISUALSTYLE
  5
32
102
{ACAD_REACTORS
330
2A
102
}
330
2A
100
AcDbVisualStyle
  2

 70
     7
177
     3
291
     1
 70
    58
 90
        1
176
     1
 90
        0
176
     1
 90
        1
176
     1
 90
        0
176
     1
 40
0.6
176
     1
 40
30.0
176
     1
 62
     7
176
     1
 90
        0
176
     1
 90
        4
176
     1
 62
     7
176
     1
 62
   257
176
     1
 90
        1
176
     1
 90
        1
176
     1
 40
1.0
176
     1
 90
        8
176
     1
 62
     7
176
     1
 40
1.0
176
     1
 90
        1
176
     1
 90
        6
176
     1
 90
        2
176
     1
 62
     7
176
     1
 90
        5
176
     1
 90
        0
176
     1
 90
        0
176
     1
290
     0
176
     1
 90
        1
176
     1
 40
0.0
176
     1
 90
        0
176
     1
290
     0
176
     1
290
     1
176
     1
290
     1
176
     1
290
     0
176
     1
290
     0
176
     1
290
     0
176
     1
290
     0
176
     1
290
     0
176
     1
290
     0
176
     1
 90
       50
176
     1
 40
0.0
176
     1
 40
1.0
176
     1
 90
        0
176
     1
 62
    18
420
        0
176
     1
 90
       50
176
     1
 90
        3
176
     1
 62
     5
420
      255
176
     1
290
     0
176
     1
 90
       50
176
     1
 90
       50
176
     1
 90
       50
176
     1
290
     0
176
     1
 90
       50
176
     1
 62
   256
176
     0
 40
1.0
176
     0
 90
        2
176
     1
  1
strokes_ogs.tif
176
     1
290
     0
176
     1
 40
1.0
176
     1
 40
1.0
176
     1
  0
VISUALSTYLE
  5
36
102
{ACAD_REACTORS
330
2A
102
}
330
2A
100
AcDbVisualStyle
  2

 70
    12
177
     3
291
     1
 70
    58
 90
        2
176
     1
 90
        2
176
     1
 90
        0
176
     1
 90
        0
176
     1
 40
0.6
176
     1
 40
30.0
176
     1
 62
     7
176
     1
 90
        1
176
     1
 90
        4
176
     1
 62
     7
176
     1
 62
   257
176
     1
 90
        1
176
     1
 90
        1
176
     1
 40
1.0
176
     1
 90
        8
176
     1
 62
     7
176
     1
 40
1.0
176
     1
 90
        1
176
     1
 90
        6
176
     1
 90
        2
176
     1
 62
     7
176
     1
 90
        5
176
     1
 90
        0
176
     1
 90
        0
176
     1
290
     0
176
     1
 90
        1
176
     1
 40
50.0
176
     1
 90
        0
176
     1
290
     0
176
     1
290
     1
176
     1
290
     1
176
     1
290
     0
176
     1
290
     0
176
     1
290
     0
176
     1
290
     0
176
     1
290
     0
176
     1
290
     0
176
     1
 90
       50
176
     1
 40
0.0
176
     1
 40
1.0
176
     1
 90
        0
176
     1
 62
    18
420
        0
176
     1
 90
       50
176
     1
 90
        3
176
     1
 62
     5
420
      255
176
     1
290
     0
176
     1
 90
       50
176
     1
 90
       50
176
     1
 90
       50
176
     1
290
     0
176
     1
 90
       50
176
     1
 62
   256
176
     0
 40
1.0
176
     0
 90
        2
176
     1
  1
strokes_ogs.tif
176
     1
290
     0
176
     1
 40
1.0
176
     1
 40
1.0
176
     1
  0
VISUALSTYLE
  5
3A
102
{ACAD_REACTORS
330
2A
102
}
330
2A
100
AcDbVisualStyle
  2

 70
    16
177
     3
291
     1
 70
    58
 90
        2
176
     1
 90
        2
176
     1
 90
        3
176
     1
 90
        0
176
     1
 40
0.6
176
     1
 40
30.0
176
     1
 62
     8
176
     1
 90
        1
176
     1
 90
        4
176
     1
 62
     7
176
     1
 62
   257
176
     1
 90
        1
176
     1
 90
        1
176
     1
 40
1.0
176
     1
 90
        8
176
     1
 62
     8
176
     1
 40
1.0
176
     1
 90
        1
176
     1
 90
        6
176
     1
 90
        2
176
     1
 62
     7
176
     1
 90
        5
176
     1
 90
        0
176
     1
 90
        0
176
     1
290
     0
176
     1
 90
        1
176
     1
 40
0.0
176
     1
 90
        0
176
     1
290
     0
176
     1
290
     1
176
     1
290
     1
176
     1
290
     0
176
     1
290
     0
176
     1
290
     0
176
     1
290
     0
176
     1
290
     0
176
     1
290
     0
176
     1
 90
       50
176
     1
 40
0.0
176
     1
 40
1.0
176
     1
 90
        0
176
     1
 62
    18
420
        0
176
     1
 90
       50
176
     1
 90
        3
176
     1
 62
     5
420
      255
176
     1
290
     0
176
     1
 90
       50
176
     1
 90
       50
176
     1
 90
       50
176
     1
290
     0
176
     1
 90
       50
176
     1
 62
   256
176
     0
 40
1.0
176
     0
 90
        2
176
     1
  1
strokes_ogs.tif
176
     1
290
     0
176
     1
 40
1.0
176
     1
 40
1.0
176
     1
  0
VISUALSTYLE
  5
34
102
{ACAD_REACTORS
330
2A
102
}
330
2A
100
AcDbVisualStyle
  2

 70
     9
177
     3
291
     0
 70
    58
 90
        3
176
     1
 90
        2
176
     1
 90
        0
176
     1
 90
        0
176
     1
 40
0.6
176
     1
 40
30.0
176
     1
 62
     7
176
     1
 90
        2
176
     1
 90
        2
176
     1
 62
     7
176
     1
 62
   257
176
     1
 90
        1
176
     1
 90
        1
176
     1
 40
40.0
176
     1
 90
        8
176
     1
 62
     7
176
     1
 40
1.0
176
     1
 90
        1
176
     1
 90
        6
176
     1
 90
        2
176
     1
 62
     7
176
     1
 90
        3
176
     1
 90
        0
176
     1
 90
        0
176
     1
290
     0
176
     1
 90
        1
176
     1
 40
0.0
176
     1
 90
        0
176
     1
290
     0
176
     1
290
     1
176
     1
290
     1
176
     1
290
     0
176
     1
290
     0
176
     1
290
     0
176
     1
290
     0
176
     1
290
     0
176
     1
290
     0
176
     1
 90
       50
176
     1
 40
0.0
176
     1
 40
1.0
176
     1
 90
        0
176
     1
 62
    18
420
        0
176
     1
 90
       50
176
     1
 90
        3
176
     1
 62
     5
420
      255
176
     1
290
     0
176
     1
 90
       50
176
     1
 90
       50
176
     1
 90
       50
176
     1
290
     0
176
     1
 90
       50
176
     1
 62
   256
176
     0
 40
1.0
176
     0
 90
        2
176
     1
  1
strokes_ogs.tif
176
     1
290
     0
176
     1
 40
1.0
176
     1
 40
1.0
176
     1
  0
VISUALSTYLE
  5
35
102
{ACAD_REACTORS
330
2A
102
}
330
2A
100
AcDbVisualStyle
  2

 70
    11
177
     3
291
     1
 70
    58
 90
        2
176
     1
 90
        2
176
     1
 90
        0
176
     1
 90
        0
176
     1
 40
0.6
176
     1
 40
30.0
176
     1
 62
     7
176
     1
 90
        1
176
     1
 90
        4
176
     1
 62
     7
176
     1
 62
   257
176
     1
 90
        1
176
     1
 90
        1
176
     1
 40
1.0
176
     1
 90
        8
176
     1
 62
     7
176
     1
 40
1.0
176
     1
 90
        1
176
     1
 90
        6
176
     1
 90
        2
176
     1
 62
     7
176
     1
 90
        5
176
     1
 90
        0
176
     1
 90
        0
176
     1
290
     0
176
     1
 90
        1
176
     1
 40
-50.0
176
     1
 90
        0
176
     1
290
     0
176
     1
290
     1
176
     1
290
     1
176
     1
290
     0
176
     1
290
     0
176
     1
290
     0
176
     1
290
     0
176
     1
290
     0
176
     1
290
     0
176
     1
 90
       50
176
     1
 40
0.0
176
     1
 40
1.0
176
     1
 90
        0
176
     1
 62
    18
420
        0
176
     1
 90
       50
176
     1
 90
        3
176
     1
 62
     5
420
      255
176
     1
290
     0
176
     1
 90
       50
176
     1
 90
       50
176
     1
 90
       50
176
     1
290
     0
176
     1
 90
       50
176
     1
 62
   256
176
     0
 40
1.0
176
     0
 90
        2
176
     1
  1
strokes_ogs.tif
176
     1
290
     0
176
     1
 40
1.0
176
     1
 40
1.0
176
     1
  0
VISUALSTYLE
  5
76F
102
{ACAD_REACTORS
330
2A
102
}
330
2A
100
AcDbVisualStyle
  2
EdgeColorOff
 70
    22
177
     3
291
     1
 70
    58
 90
        2
176
     0
 90
        2
176
     0
 90
        0
176
     0
 90
        0
176
     0
 40
0.6
176
     0
 40
30.0
176
     0
 62
     7
420
 16777215
176
     0
 90
        1
176
     0
 90
        4
176
     0
 62
     7
176
     0
 62
   257
176
     0
 90
        1
176
     0
 90
        1
176
     0
 40
1.0
176
     0
 90
        8
176
     2
 62
     7
176
     0
 40
1.0
176
     0
 90
        1
176
     0
 90
        6
176
     0
 90
        2
176
     0
 62
     7
176
     0
 90
        5
176
     0
 90
        0
176
     0
 90
        0
176
     0
290
     0
176
     0
 90
        1
176
     0
 40
0.0
176
     0
 90
        0
176
     0
290
     0
176
     1
290
     1
176
     1
290
     1
176
     1
290
     0
176
     1
290
     0
176
     1
290
     0
176
     1
290
     0
176
     1
290
     0
176
     1
290
     0
176
     1
 90
       50
176
     0
 40
0.0
176
     0
 40
1.0
176
     0
 90
        0
176
     0
 62
    18
420
        0
176
     0
 90
       50
176
     0
 90
        3
176
     0
 62
     5
420
      255
176
     0
290
     0
176
     1
 90
       50
176
     0
 90
       50
176
     0
 90
       50
176
     0
290
     0
176
     1
 90
       50
176
     0
 62
   256
176
     0
 40
1.0
176
     0
 90
        2
176
     0
  1
strokes_ogs.tif
176
     0
290
     0
176
     1
 40
1.0
176
     0
 40
1.0
176
     0
  0
VISUALSTYLE
  5
39
102
{ACAD_REACTORS
330
2A
102
}
330
2A
100
AcDbVisualStyle
  2

 70
    15
177
     3
291
     1
 70
    58
 90
        2
176
     1
 90
        2
176
     1
 90
        0
176
     1
 90
        0
176
     1
 40
0.6
176
     1
 40
30.0
176
     1
 62
     7
176
     1
 90
        1
176
     1
 90
        4
176
     1
 62
     7
176
     1
 62
   257
176
     1
 90
        1
176
     1
 90
        1
176
     1
 40
1.0
176
     1
 90
        8
176
     1
 62
     7
176
     1
 40
1.0
176
     1
 90
        1
176
     1
 90
        6
176
     1
 90
        2
176
     1
 62
     7
176
     1
 90
        5
176
     1
 90
        0
176
     1
 90
        0
176
     1
290
     0
176
     1
 90
        1
176
     1
 40
0.0
176
     1
 90
        0
176
     1
290
     0
176
     1
290
     1
176
     1
290
     1
176
     1
290
     0
176
     1
290
     0
176
     1
290
     0
176
     1
290
     0
176
     1
290
     0
176
     1
290
     0
176
     1
 90
       50
176
     1
 40
0.0
176
     1
 40
1.0
176
     1
 90
        0
176
     1
 62
    18
420
        0
176
     1
 90
       50
176
     1
 90
        3
176
     1
 62
     5
420
      255
176
     1
290
     0
176
     1
 90
       50
176
     1
 90
       50
176
     1
 90
       50
176
     1
290
     0
176
     1
 90
       50
176
     1
 62
   256
176
     0
 40
1.0
176
     0
 90
        2
176
     1
  1
strokes_ogs.tif
176
     1
290
     0
176
     1
 40
1.0
176
     1
 40
1.0
176
     1
  0
VISUALSTYLE
  5
2B
102
{ACAD_REACTORS
330
2A
102
}
330
2A
100
AcDbVisualStyle
  2

 70
     0
177
     3
291
     1
 70
    58
 90
        2
176
     1
 90
        1
176
     1
 90
        1
176
     1
 90
        2
176
     1
 40
0.6
176
     1
 40
30.0
176
     1
 62
     7
176
     1
 90
        0
176
     1
 90
        4
176
     1
 62
     7
176
     1
 62
   257
176
     1
 90
        1
176
     1
 90
        1
176
     1
 40
1.0
176
     1
 90
        8
176
     1
 62
     7
176
     1
 40
1.0
176
     1
 90
        1
176
     1
 90
        6
176
     1
 90
        2
176
     1
 62
     7
176
     1
 90
        5
176
     1
 90
        0
176
     1
 90
        0
176
     1
290
     0
176
     1
 90
       13
176
     1
 40
0.0
176
     1
 90
        0
176
     1
290
     0
176
     1
290
     1
176
     1
290
     1
176
     1
290
     0
176
     1
290
     0
176
     1
290
     0
176
     1
290
     0
176
     1
290
     0
176
     1
290
     0
176
     1
 90
       50
176
     1
 40
0.0
176
     1
 40
1.0
176
     1
 90
        0
176
     1
 62
    18
420
        0
176
     1
 90
       50
176
     1
 90
        3
176
     1
 62
     5
420
      255
176
     1
290
     0
176
     1
 90
       50
176
     1
 90
       50
176
     1
 90
       50
176
     1
290
     0
176
     1
 90
       50
176
     1
 62
   256
176
     0
 40
1.0
176
     0
 90
        2
176
     1
  1
strokes_ogs.tif
176
     1
290
     0
176
     1
 40
1.0
176
     1
 40
1.0
176
     1
  0
VISUALSTYLE
  5
2C
102
{ACAD_REACTORS
330
2A
102
}
330
2A
100
AcDbVisualStyle
  2

 70
     1
177
     3
291
     1
 70
    58
 90
        2
176
     1
 90
        1
176
     1
 90
        1
176
     1
 90
        2
176
     1
 40
0.6
176
     1
 40
30.0
176
     1
 62
     7
176
     1
 90
        1
176
     1
 90
        4
176
     1
 62
     7
176
     1
 62
   257
176
     1
 90
        1
176
     1
 90
        1
176
     1
 40
1.0
176
     1
 90
        0
176
     1
 62
   257
176
     1
 40
1.0
176
     1
 90
        1
176
     1
 90
        6
176
     1
 90
        2
176
     1
 62
     7
176
     1
 90
        5
176
     1
 90
        0
176
     1
 90
        0
176
     1
290
     0
176
     1
 90
       13
176
     1
 40
0.0
176
     1
 90
        0
176
     1
290
     0
176
     1
290
     1
176
     1
290
     1
176
     1
290
     0
176
     1
290
     0
176
     1
290
     0
176
     1
290
     0
176
     1
290
     0
176
     1
290
     0
176
     1
 90
       50
176
     1
 40
0.0
176
     1
 40
1.0
176
     1
 90
        0
176
     1
 62
    18
420
        0
176
     1
 90
       50
176
     1
 90
        3
176
     1
 62
     5
420
      255
176
     1
290
     0
176
     1
 90
       50
176
     1
 90
       50
176
     1
 90
       50
176
     1
290
     0
176
     1
 90
       50
176
     1
 62
   256
176
     0
 40
1.0
176
     0
 90
        2
176
     1
  1
strokes_ogs.tif
176
     1
290
     0
176
     1
 40
1.0
176
     1
 40
1.0
176
     1
  0
VISUALSTYLE
  5
2D
102
{ACAD_REACTORS
330
2A
102
}
330
2A
100
AcDbVisualStyle
  2

 70
     2
177
     3
291
     1
 70
    58
 90
        2
176
     1
 90
        2
176
     1
 90
        1
176
     1
 90
        2
176
     1
 40
0.6
176
     1
 40
30.0
176
     1
 62
     7
176
     1
 90
        0
176
     1
 90
        4
176
     1
 62
     7
176
     1
 62
   257
176
     1
 90
        1
176
     1
 90
        1
176
     1
 40
1.0
176
     1
 90
        0
176
     1
 62
     7
176
     1
 40
1.0
176
     1
 90
        1
176
     1
 90
        6
176
     1
 90
        2
176
     1
 62
     7
176
     1
 90
        5
176
     1
 90
        0
176
     1
 90
        0
176
     1
290
     0
176
     1
 90
       13
176
     1
 40
0.0
176
     1
 90
        0
176
     1
290
     0
176
     1
290
     1
176
     1
290
     1
176
     1
290
     0
176
     1
290
     0
176
     1
290
     0
176
     1
290
     0
176
     1
290
     0
176
     1
290
     0
176
     1
 90
       50
176
     1
 40
0.0
176
     1
 40
1.0
176
     1
 90
        0
176
     1
 62
    18
420
        0
176
     1
 90
       50
176
     1
 90
        3
176
     1
 62
     5
420
      255
176
     1
290
     0
176
     1
 90
       50
176
     1
 90
       50
176
     1
 90
       50
176
     1
290
     0
176
     1
 90
       50
176
     1
 62
   256
176
     0
 40
1.0
176
     0
 90
        2
176
     1
  1
strokes_ogs.tif
176
     1
290
     0
176
     1
 40
1.0
176
     1
 40
1.0
176
     1
  0
VISUALSTYLE
  5
2E
102
{ACAD_REACTORS
330
2A
102
}
330
2A
100
AcDbVisualStyle
  2

 70
     3
177
     3
291
     1
 70
    58
 90
        2
176
     1
 90
        2
176
     1
 90
        1
176
     1
 90
        2
176
     1
 40
0.6
176
     1
 40
30.0
176
     1
 62
     7
176
     1
 90
        1
176
     1
 90
        4
176
     1
 62
     7
176
     1
 62
   257
176
     1
 90
        1
176
     1
 90
        1
176
     1
 40
1.0
176
     1
 90
        0
176
     1
 62
   257
176
     1
 40
1.0
176
     1
 90
        1
176
     1
 90
        6
176
     1
 90
        2
176
     1
 62
     7
176
     1
 90
        5
176
     1
 90
        0
176
     1
 90
        0
176
     1
290
     0
176
     1
 90
       13
176
     1
 40
0.0
176
     1
 90
        0
176
     1
290
     0
176
     1
290
     1
176
     1
290
     1
176
     1
290
     0
176
     1
290
     0
176
     1
290
     0
176
     1
290
     0
176
     1
290
     0
176
     1
290
     0
176
     1
 90
       50
176
     1
 40
0.0
176
     1
 40
1.0
176
     1
 90
        0
176
     1
 62
    18
420
        0
176
     1
 90
       50
176
     1
 90
        3
176
     1
 62
     5
420
      255
176
     1
290
     0
176
     1
 90
       50
176
     1
 90
       50
176
     1
 90
       50
176
     1
290
     0
176
     1
 90
       50
176
     1
 62
   256
176
     0
 40
1.0
176
     0
 90
        2
176
     1
  1
strokes_ogs.tif
176
     1
290
     0
176
     1
 40
1.0
176
     1
 40
1.0
176
     1
  0
VISUALSTYLE
  5
767
102
{ACAD_REACTORS
330
2A
102
}
330
2A
100
AcDbVisualStyle
  2
Hidden
 70
     6
177
     3
291
     0
 70
    58
 90
        1
176
     1
 90
        2
176
     1
 90
        2
176
     1
 90
        0
176
     1
 40
0.6
176
     1
 40
30.0
176
     1
 62
     7
420
 16777215
176
     1
 90
        2
176
     1
 90
        2
176
     1
 62
     7
176
     1
 62
   257
176
     1
 90
        2
176
     1
 90
        1
176
     1
 40
40.0
176
     1
 90
        0
176
     1
 62
   257
176
     1
 40
1.0
176
     1
 90
        1
176
     1
 90
        6
176
     1
 90
        2
176
     1
 62
     7
176
     1
 90
        3
176
     1
 90
        0
176
     1
 90
        0
176
     1
290
     0
176
     1
 90
        1
176
     1
 40
0.0
176
     1
 90
        0
176
     1
290
     0
176
     1
290
     1
176
     1
290
     1
176
     1
290
     0
176
     1
290
     0
176
     1
290
     0
176
     1
290
     0
176
     1
290
     0
176
     1
290
     0
176
     1
 90
       50
176
     1
 40
0.0
176
     1
 40
1.0
176
     1
 90
        0
176
     1
 62
    18
420
        0
176
     1
 90
       50
176
     1
 90
        3
176
     1
 62
     5
420
      255
176
     1
290
     0
176
     1
 90
       50
176
     1
 90
       50
176
     1
 90
       50
176
     1
290
     0
176
     1
 90
       50
176
     1
 62
   256
176
     0
 40
1.0
176
     0
 90
        2
176
     1
  1
strokes_ogs.tif
176
     1
290
     0
176
     1
 40
1.0
176
     1
 40
1.0
176
     1
  0
VISUALSTYLE
  5
76D
102
{ACAD_REACTORS
330
2A
102
}
330
2A
100
AcDbVisualStyle
  2
JitterOff
 70
    20
177
     3
291
     1
 70
    58
 90
        2
176
     0
 90
        2
176
     0
 90
        0
176
     0
 90
        0
176
     0
 40
0.6
176
     0
 40
30.0
176
     0
 62
     7
420
 16777215
176
     0
 90
        1
176
     0
 90
        4
176
     0
 62
     7
176
     0
 62
   257
176
     0
 90
        1
176
     0
 90
        1
176
     0
 40
1.0
176
     0
 90
       10
176
     2
 62
     7
176
     0
 40
1.0
176
     0
 90
        1
176
     0
 90
        6
176
     0
 90
        2
176
     0
 62
     7
176
     0
 90
        5
176
     0
 90
        0
176
     0
 90
        0
176
     0
290
     0
176
     0
 90
        1
176
     0
 40
0.0
176
     0
 90
        0
176
     0
290
     0
176
     1
290
     1
176
     1
290
     1
176
     1
290
     0
176
     1
290
     0
176
     1
290
     0
176
     1
290
     0
176
     1
290
     0
176
     1
290
     0
176
     1
 90
       50
176
     0
 40
0.0
176
     0
 40
1.0
176
     0
 90
        0
176
     0
 62
    18
420
        0
176
     0
 90
       50
176
     0
 90
        3
176
     0
 62
     5
420
      255
176
     0
290
     0
176
     1
 90
       50
176
     0
 90
       50
176
     0
 90
       50
176
     0
290
     0
176
     1
 90
       50
176
     0
 62
   256
176
     0
 40
1.0
176
     0
 90
        2
176
     0
  1
strokes_ogs.tif
176
     0
290
     0
176
     1
 40
1.0
176
     0
 40
1.0
176
     0
  0
VISUALSTYLE
  5
38
102
{ACAD_REACTORS
330
2A
102
}
330
2A
100
AcDbVisualStyle
  2

 70
    14
177
     3
291
     1
 70
    58
 90
        2
176
     1
 90
        2
176
     1
 90
        0
176
     1
 90
        0
176
     1
 40
0.6
176
     1
 40
30.0
176
     1
 62
     7
176
     1
 90
        1
176
     1
 90
        4
176
     1
 62
     7
176
     1
 62
   257
176
     1
 90
        7
176
     1
 90
        7
176
     1
 40
1.0
176
     1
 90
        8
176
     1
 62
     7
176
     1
 40
1.0
176
     1
 90
        1
176
     1
 90
        6
176
     1
 90
        2
176
     1
 62
     7
176
     1
 90
        5
176
     1
 90
        0
176
     1
 90
        0
176
     1
290
     0
176
     1
 90
        1
176
     1
 40
0.0
176
     1
 90
        0
176
     1
290
     0
176
     1
290
     1
176
     1
290
     1
176
     1
290
     0
176
     1
290
     0
176
     1
290
     0
176
     1
290
     0
176
     1
290
     0
176
     1
290
     0
176
     1
 90
       50
176
     1
 40
0.0
176
     1
 40
1.0
176
     1
 90
        0
176
     1
 62
    18
420
        0
176
     1
 90
       50
176
     1
 90
        3
176
     1
 62
     5
420
      255
176
     1
290
     0
176
     1
 90
       50
176
     1
 90
       50
176
     1
 90
       50
176
     1
290
     0
176
     1
 90
       50
176
     1
 62
   256
176
     0
 40
1.0
176
     0
 90
        2
176
     1
  1
strokes_ogs.tif
176
     1
290
     0
176
     1
 40
1.0
176
     1
 40
1.0
176
     1
  0
VISUALSTYLE
  5
76E
102
{ACAD_REACTORS
330
2A
102
}
330
2A
100
AcDbVisualStyle
  2
OverhangOff
 70
    21
177
     3
291
     1
 70
    58
 90
        2
176
     0
 90
        2
176
     0
 90
        0
176
     0
 90
        0
176
     0
 40
0.6
176
     0
 40
30.0
176
     0
 62
     7
420
 16777215
176
     0
 90
        1
176
     0
 90
        4
176
     0
 62
     7
176
     0
 62
   257
176
     0
 90
        1
176
     0
 90
        1
176
     0
 40
1.0
176
     0
 90
        9
176
     2
 62
     7
176
     0
 40
1.0
176
     0
 90
        1
176
     0
 90
        6
176
     0
 90
        2
176
     0
 62
     7
176
     0
 90
        5
176
     0
 90
        0
176
     0
 90
        0
176
     0
290
     0
176
     0
 90
        1
176
     0
 40
0.0
176
     0
 90
        0
176
     0
290
     0
176
     1
290
     1
176
     1
290
     1
176
     1
290
     0
176
     1
290
     0
176
     1
290
     0
176
     1
290
     0
176
     1
290
     0
176
     1
290
     0
176
     1
 90
       50
176
     0
 40
0.0
176
     0
 40
1.0
176
     0
 90
        0
176
     0
 62
    18
420
        0
176
     0
 90
       50
176
     0
 90
        3
176
     0
 62
     5
420
      255
176
     0
290
     0
176
     1
 90
       50
176
     0
 90
       50
176
     0
 90
       50
176
     0
290
     0
176
     1
 90
       50
176
     0
 62
   256
176
     0
 40
1.0
176
     0
 90
        2
176
     0
  1
strokes_ogs.tif
176
     0
290
     0
176
     1
 40
1.0
176
     0
 40
1.0
176
     0
  0
VISUALSTYLE
  5
33
102
{ACAD_REACTORS
330
2A
102
}
330
2A
100
AcDbVisualStyle
  2

 70
     8
177
     3
291
     0
 70
    58
 90
        2
176
     1
 90
        2
176
     1
 90
        0
176
     1
 90
        0
176
     1
 40
0.6
176
     1
 40
30.0
176
     1
 62
     7
176
     1
 90
        1
176
     1
 90
        0
176
     1
 62
     7
176
     1
 62
   257
176
     1
 90
        1
176
     1
 90
        1
176
     1
 40
1.0
176
     1
 90
        8
176
     1
 62
     8
176
     1
 40
1.0
176
     1
 90
        1
176
     1
 90
        6
176
     1
 90
        2
176
     1
 62
     7
176
     1
 90
        5
176
     1
 90
        0
176
     1
 90
        0
176
     1
290
     0
176
     1
 90
       13
176
     1
 40
0.0
176
     1
 90
        0
176
     1
290
     0
176
     1
290
     1
176
     1
290
     1
176
     1
290
     0
176
     1
290
     0
176
     1
290
     0
176
     1
290
     0
176
     1
290
     0
176
     1
290
     0
176
     1
 90
       50
176
     1
 40
0.0
176
     1
 40
1.0
176
     1
 90
        0
176
     1
 62
    18
420
        0
176
     1
 90
       50
176
     1
 90
        3
176
     1
 62
     5
420
      255
176
     1
290
     0
176
     1
 90
       50
176
     1
 90
       50
176
     1
 90
       50
176
     1
290
     0
176
     1
 90
       50
176
     1
 62
   256
176
     0
 40
1.0
176
     0
 90
        2
176
     1
  1
strokes_ogs.tif
176
     1
290
     0
176
     1
 40
1.0
176
     1
 40
1.0
176
     1
  0
VISUALSTYLE
  5
76C
102
{ACAD_REACTORS
330
2A
102
}
330
2A
100
AcDbVisualStyle
  2
Shaded
 70
    27
177
     3
291
     0
 70
    58
 90
        2
176
     1
 90
        2
176
     1
 90
        1
176
     1
 90
        2
176
     1
 40
0.6
176
     1
 40
30.0
176
     1
 62
     7
420
 16777215
176
     1
 90
        0
176
     1
 90
        4
176
     1
 62
     7
176
     1
 62
   257
176
     1
 90
        1
176
     1
 90
        1
176
     1
 40
1.0
176
     1
 90
        8
176
     1
 62
   257
176
     1
 40
1.0
176
     1
 90
        1
176
     1
 90
        6
176
     1
 90
        2
176
     1
 62
     8
420
  7895160
176
     1
 90
        3
176
     1
 90
        0
176
     1
 90
        0
176
     1
290
     0
176
     1
 90
        5
176
     1
 40
0.0
176
     1
 90
        0
176
     1
290
     0
176
     1
290
     1
176
     1
290
     1
176
     1
290
     0
176
     1
290
     0
176
     1
290
     0
176
     1
290
     0
176
     1
290
     0
176
     1
290
     0
176
     1
 90
       50
176
     1
 40
0.0
176
     1
 40
1.0
176
     1
 90
        0
176
     1
 62
    18
420
        0
176
     1
 90
       50
176
     1
 90
        3
176
     1
 62
     5
420
      255
176
     1
290
     0
176
     1
 90
       50
176
     1
 90
       50
176
     1
 90
       50
176
     1
290
     0
176
     1
 90
       50
176
     1
 62
   256
176
     0
 40
1.0
176
     0
 90
        2
176
     1
  1
strokes_ogs.tif
176
     1
290
     0
176
     1
 40
1.0
176
     1
 40
1.0
176
     1
  0
VISUALSTYLE
  5
76B
102
{ACAD_REACTORS
330
2A
102
}
330
2A
100
AcDbVisualStyle
  2
Shaded with edges
 70
    26
177
     3
291
     0
 70
    58
 90
        2
176
     1
 90
        2
176
     1
 90
        1
176
     1
 90
        2
176
     1
 40
0.6
176
     1
 40
30.0
176
     1
 62
     7
420
 16777215
176
     1
 90
        1
176
     1
 90
       10
176
     1
 62
     7
176
     1
 62
   257
176
     1
 90
        2
176
     1
 90
        1
176
     1
 40
1.0
176
     1
 90
        8
176
     1
 62
   257
176
     1
 40
1.0
176
     1
 90
        1
176
     1
 90
        6
176
     1
 90
        2
176
     1
 62
     7
176
     1
 90
        3
176
     1
 90
        0
176
     1
 90
        0
176
     1
290
     0
176
     1
 90
        5
176
     1
 40
0.0
176
     1
 90
        0
176
     1
290
     0
176
     1
290
     1
176
     1
290
     1
176
     1
290
     0
176
     1
290
     0
176
     1
290
     0
176
     1
290
     0
176
     1
290
     0
176
     1
290
     0
176
     1
 90
       50
176
     1
 40
0.0
176
     1
 40
1.0
176
     1
 90
        0
176
     1
 62
    18
420
        0
176
     1
 90
       50
176
     1
 90
        3
176
     1
 62
     5
420
      255
176
     1
290
     0
176
     1
 90
       50
176
     1
 90
       50
176
     1
 90
       50
176
     1
290
     0
176
     1
 90
       50
176
     1
 62
   256
176
     0
 40
1.0
176
     0
 90
        2
176
     1
  1
strokes_ogs.tif
176
     1
290
     0
176
     1
 40
1.0
176
     1
 40
1.0
176
     1
  0
VISUALSTYLE
  5
768
102
{ACAD_REACTORS
330
2A
102
}
330
2A
100
AcDbVisualStyle
  2
Shades of Gray
 70
    23
177
     3
291
     0
 70
    58
 90
        2
176
     1
 90
        2
176
     1
 90
        3
176
     1
 90
        0
176
     1
 40
0.6
176
     1
 40
30.0
176
     1
 62
     7
420
 16777215
176
     1
 90
        2
176
     1
 90
        2
176
     1
 62
     7
176
     1
 62
     7
176
     1
 90
        1
176
     1
 90
        1
176
     1
 40
40.0
176
     1
 90
        8
176
     1
 62
     7
176
     1
 40
1.0
176
     1
 90
        1
176
     1
 90
        6
176
     1
 90
        2
176
     1
 62
     7
176
     1
 90
        3
176
     1
 90
        0
176
     1
 90
        0
176
     1
290
     0
176
     1
 90
        1
176
     1
 40
0.0
176
     1
 90
        0
176
     1
290
     0
176
     1
290
     1
176
     1
290
     1
176
     1
290
     0
176
     1
290
     0
176
     1
290
     0
176
     1
290
     0
176
     1
290
     0
176
     1
290
     0
176
     1
 90
       50
176
     1
 40
0.0
176
     1
 40
1.0
176
     1
 90
        0
176
     1
 62
    18
420
        0
176
     1
 90
       50
176
     1
 90
        3
176
     1
 62
     5
420
      255
176
     1
290
     0
176
     1
 90
       50
176
     1
 90
       50
176
     1
 90
       50
176
     1
290
     0
176
     1
 90
       50
176
     1
 62
   256
176
     0
 40
1.0
176
     0
 90
        2
176
     1
  1
strokes_ogs.tif
176
     1
290
     0
176
     1
 40
1.0
176
     1
 40
1.0
176
     1
  0
VISUALSTYLE
  5
769
102
{ACAD_REACTORS
330
2A
102
}
330
2A
100
AcDbVisualStyle
  2
Sketchy
 70
    24
177
     3
291
     0
 70
    58
 90
        1
176
     1
 90
        2
176
     1
 90
        2
176
     1
 90
        0
176
     1
 40
0.6
176
     1
 40
30.0
176
     1
 62
     7
420
 16777215
176
     1
 90
        2
176
     1
 90
        2
176
     1
 62
     7
176
     1
 62
     7
176
     1
 90
        1
176
     1
 90
        1
176
     1
 40
40.0
176
     1
 90
       11
176
     1
 62
     7
176
     1
 40
1.0
176
     1
 90
        1
176
     1
 90
        6
176
     1
 90
        2
176
     1
 62
     7
176
     1
 90
        6
176
     1
 90
        0
176
     1
 90
        0
176
     1
290
     0
176
     1
 90
        1
176
     1
 40
0.0
176
     1
 90
        0
176
     1
290
     0
176
     1
290
     1
176
     1
290
     1
176
     1
290
     0
176
     1
290
     0
176
     1
290
     0
176
     1
290
     0
176
     1
290
     0
176
     1
290
     0
176
     1
 90
       50
176
     1
 40
0.0
176
     1
 40
1.0
176
     1
 90
        0
176
     1
 62
    18
420
        0
176
     1
 90
       50
176
     1
 90
        3
176
     1
 62
     5
420
      255
176
     1
290
     0
176
     1
 90
       50
176
     1
 90
       50
176
     1
 90
       50
176
     1
290
     0
176
     1
 90
       50
176
     1
 62
   256
176
     0
 40
1.0
176
     0
 90
        2
176
     1
  1
strokes_ogs.tif
176
     1
290
     0
176
     1
 40
1.0
176
     1
 40
1.0
176
     1
  0
VISUALSTYLE
  5
37
102
{ACAD_REACTORS
330
2A
102
}
330
2A
100
AcDbVisualStyle
  2

 70
    13
177
     3
291
     1
 70
    58
 90
        2
176
     1
 90
        2
176
     1
 90
        0
176
     1
 90
        0
176
     1
 40
0.6
176
     1
 40
30.0
176
     1
 62
     7
176
     1
 90
        1
176
     1
 90
        4
176
     1
 62
     7
176
     1
 62
   257
176
     1
 90
        1
176
     1
 90
        1
176
     1
 40
1.0
176
     1
 90
       12
176
     1
 62
     7
176
     1
 40
1.0
176
     1
 90
        1
176
     1
 90
        6
176
     1
 90
        2
176
     1
 62
     7
176
     1
 90
        5
176
     1
 90
        0
176
     1
 90
        0
176
     1
290
     0
176
     1
 90
        1
176
     1
 40
0.0
176
     1
 90
        0
176
     1
290
     0
176
     1
290
     1
176
     1
290
     1
176
     1
290
     0
176
     1
290
     0
176
     1
290
     0
176
     1
290
     0
176
     1
290
     0
176
     1
290
     0
176
     1
 90
       50
176
     1
 40
0.0
176
     1
 40
1.0
176
     1
 90
        0
176
     1
 62
    18
420
        0
176
     1
 90
       50
176
     1
 90
        3
176
     1
 62
     5
420
      255
176
     1
290
     0
176
     1
 90
       50
176
     1
 90
       50
176
     1
 90
       50
176
     1
290
     0
176
     1
 90
       50
176
     1
 62
   256
176
     0
 40
1.0
176
     0
 90
        2
176
     1
  1
strokes_ogs.tif
176
     1
290
     0
176
     1
 40
1.0
176
     1
 40
1.0
176
     1
  0
VISUALSTYLE
  5
766
102
{ACAD_REACTORS
330
2A
102
}
330
2A
100
AcDbVisualStyle
  2
Wireframe
 70
     5
177
     3
291
     0
 70
    58
 90
        0
176
     1
 90
        2
176
     1
 90
        0
176
     1
 90
        0
176
     1
 40
0.6
176
     1
 40
30.0
176
     1
 62
     7
420
 16777215
176
     1
 90
        1
176
     1
 90
        4
176
     1
 62
     7
176
     1
 62
   257
176
     1
 90
        1
176
     1
 90
        1
176
     1
 40
1.0
176
     1
 90
        0
176
     1
 62
   257
176
     1
 40
1.0
176
     1
 90
        1
176
     1
 90
        6
176
     1
 90
        2
176
     1
 62
     7
176
     1
 90
        3
176
     1
 90
        0
176
     1
 90
        0
176
     1
290
     0
176
     1
 90
        1
176
     1
 40
0.0
176
     1
 90
        0
176
     1
290
     0
176
     1
290
     1
176
     1
290
     1
176
     1
290
     0
176
     1
290
     0
176
     1
290
     0
176
     1
290
     0
176
     1
290
     0
176
     1
290
     0
176
     1
 90
       50
176
     1
 40
0.0
176
     1
 40
1.0
176
     1
 90
        0
176
     1
 62
    18
420
        0
176
     1
 90
       50
176
     1
 90
        3
176
     1
 62
     5
420
      255
176
     1
290
     0
176
     1
 90
       50
176
     1
 90
       50
176
     1
 90
       50
176
     1
290
     0
176
     1
 90
       50
176
     1
 62
   256
176
     0
 40
1.0
176
     0
 90
        2
176
     1
  1
strokes_ogs.tif
176
     1
290
     0
176
     1
 40
1.0
176
     1
 40
1.0
176
     1
  0
VISUALSTYLE
  5
76A
102
{ACAD_REACTORS
330
2A
102
}
330
2A
100
AcDbVisualStyle
  2
X-Ray
 70
    25
177
     3
291
     0
 70
    58
 90
        2
176
     1
 90
        2
176
     1
 90
        1
176
     1
 90
        1
176
     1
 40
0.5
176
     1
 40
30.0
176
     1
 62
     7
420
 16777215
176
     1
 90
        1
176
     1
 90
        0
176
     1
 62
     7
176
     1
 62
   257
176
     1
 90
        1
176
     1
 90
        1
176
     1
 40
1.0
176
     1
 90
        8
176
     1
 62
     7
176
     1
 40
1.0
176
     1
 90
        1
176
     1
 90
        6
176
     1
 90
        2
176
     1
 62
     7
176
     1
 90
        3
176
     1
 90
        0
176
     1
 90
        0
176
     1
290
     0
176
     1
 90
       13
176
     1
 40
0.0
176
     1
 90
        0
176
     1
290
     0
176
     1
290
     1
176
     1
290
     1
176
     1
290
     0
176
     1
290
     0
176
     1
290
     0
176
     1
290
     0
176
     1
290
     0
176
     1
290
     0
176
     1
 90
       50
176
     1
 40
0.0
176
     1
 40
1.0
176
     1
 90
        0
176
     1
 62
    18
420
        0
176
     1
 90
       50
176
     1
 90
        3
176
     1
 62
     5
420
      255
176
     1
290
     0
176
     1
 90
       50
176
     1
 90
       50
176
     1
 90
       50
176
     1
290
     0
176
     1
 90
       50
176
     1
 62
   256
176
     0
 40
1.0
176
     0
 90
        2
176
     1
  1
strokes_ogs.tif
176
     1
290
     0
176
     1
 40
1.0
176
     1
 40
1.0
176
     1
  0
DICTIONARYVAR
  5
8C3
102
{ACAD_REACTORS
330
8BD
102
}
330
8BD
100
DictionaryVariables
280
     0
  1
1:1
  0
DICTIONARYVAR
  5
8BF
102
{ACAD_REACTORS
330
8BD
102
}
330
8BD
100
DictionaryVariables
280
     0
  1
STANDARD
  0
DICTIONARYVAR
  5
8BE
102
{ACAD_REACTORS
330
8BD
102
}
330
8BD
100
DictionaryVariables
280
     0
  1
STANDARD
  0
DICTIONARYVAR
  5
8C0
102
{ACAD_REACTORS
330
8BD
102
}
330
8BD
100
DictionaryVariables
280
     0
  1
Imperial24
  0
DICTIONARYVAR
  5
8C1
102
{ACAD_REACTORS
330
8BD
102
}
330
8BD
100
DictionaryVariables
280
     0
  1
Imperial24
  0
DICTIONARYVAR
  5
8C5
102
{ACAD_REACTORS
330
8BD
102
}
330
8BD
100
DictionaryVariables
280
     0
  1
1
  0
DICTIONARYVAR
  5
8C6
102
{ACAD_REACTORS
330
8BD
102
}
330
8BD
100
DictionaryVariables
280
     0
  1
15
  0
DICTIONARYVAR
  5
8C4
102
{ACAD_REACTORS
330
8BD
102
}
330
8BD
100
DictionaryVariables
280
     0
  1
0
  0
DICTIONARYVAR
  5
8C2
102
{ACAD_REACTORS
330
8BD
102
}
330
8BD
100
DictionaryVariables
280
     0
  1
0
  0
DICTIONARY
  5
757
330
756
100
AcDbDictionary
280
     1
281
     1
  3
BUMPTILE
360
759
  3
DIFFUSETILE
360
758
  3
OPACITYTILE
360
75C
  3
REFLECTIONTILE
360
75B
  3
REFRACTIONTILE
360
75D
  3
SPECULARTILE
360
75A
  0
DICTIONARY
  5
74F
330
74E
100
AcDbDictionary
280
     1
281
     1
  3
BUMPTILE
360
751
  3
DIFFUSETILE
360
750
  3
OPACITYTILE
360
754
  3
REFLECTIONTILE
360
753
  3
REFRACTIONTILE
360
755
  3
SPECULARTILE
360
752
  0
DICTIONARY
  5
75F
330
75E
100
AcDbDictionary
280
     1
281
     1
  3
BUMPTILE
360
761
  3
DIFFUSETILE
360
760
  3
OPACITYTILE
360
764
  3
REFLECTIONTILE
360
763
  3
REFRACTIONTILE
360
765
  3
SPECULARTILE
360
762
  0
DICTIONARY
  5
A4A
330
771
100
AcDbDictionary
280
     1
281
     1
  3
ACAD_ROUNDTRIP_2008_TABLESTYLE_CELLSTYLEMAP
360
A4B
  0
XRECORD
  5
759
102
{ACAD_REACTORS
330
757
102
}
330
757
100
AcDbXrecord
280
     1
270
     1
271
     1
  0
XRECORD
  5
758
102
{ACAD_REACTORS
330
757
102
}
330
757
100
AcDbXrecord
280
     1
270
     1
271
     1
  0
XRECORD
  5
75C
102
{ACAD_REACTORS
330
757
102
}
330
757
100
AcDbXrecord
280
     1
270
     1
271
     1
  0
XRECORD
  5
75B
102
{ACAD_REACTORS
330
757
102
}
330
757
100
AcDbXrecord
280
     1
270
     1
271
     1
  0
XRECORD
  5
75D
102
{ACAD_REACTORS
330
757
102
}
330
757
100
AcDbXrecord
280
     1
270
     1
271
     1
  0
XRECORD
  5
75A
102
{ACAD_REACTORS
330
757
102
}
330
757
100
AcDbXrecord
280
     1
270
     1
271
     1
  0
XRECORD
  5
751
102
{ACAD_REACTORS
330
74F
102
}
330
74F
100
AcDbXrecord
280
     1
270
     1
271
     1
  0
XRECORD
  5
750
102
{ACAD_REACTORS
330
74F
102
}
330
74F
100
AcDbXrecord
280
     1
270
     1
271
     1
  0
XRECORD
  5
754
102
{ACAD_REACTORS
330
74F
102
}
330
74F
100
AcDbXrecord
280
     1
270
     1
271
     1
  0
XRECORD
  5
753
102
{ACAD_REACTORS
330
74F
102
}
330
74F
100
AcDbXrecord
280
     1
270
     1
271
     1
  0
XRECORD
  5
755
102
{ACAD_REACTORS
330
74F
102
}
330
74F
100
AcDbXrecord
280
     1
270
     1
271
     1
  0
XRECORD
  5
752
102
{ACAD_REACTORS
330
74F
102
}
330
74F
100
AcDbXrecord
280
     1
270
     1
271
     1
  0
XRECORD
  5
761
102
{ACAD_REACTORS
330
75F
102
}
330
75F
100
AcDbXrecord
280
     1
270
     1
271
     1
  0
XRECORD
  5
760
102
{ACAD_REACTORS
330
75F
102
}
330
75F
100
AcDbXrecord
280
     1
270
     1
271
     1
  0
XRECORD
  5
764
102
{ACAD_REACTORS
330
75F
102
}
330
75F
100
AcDbXrecord
280
     1
270
     1
271
     1
  0
XRECORD
  5
763
102
{ACAD_REACTORS
330
75F
102
}
330
75F
100
AcDbXrecord
280
     1
270
     1
271
     1
  0
XRECORD
  5
765
102
{ACAD_REACTORS
330
75F
102
}
330
75F
100
AcDbXrecord
280
     1
270
     1
271
     1
  0
XRECORD
  5
762
102
{ACAD_REACTORS
330
75F
102
}
330
75F
100
AcDbXrecord
280
     1
270
     1
271
     1
  0
CELLSTYLEMAP
  5
A4B
102
{ACAD_REACTORS
330
A4A
102
}
330
A4A
100
AcDbCellStyleMap
 90
        3
300
CELLSTYLE
  1
TABLEFORMAT_BEGIN
 90
        5
170
     1
 91
        0
 92
    32768
 62
   257
 93
        1
300
CONTENTFORMAT
  1
CONTENTFORMAT_BEGIN
 90
        0
 91
        0
 92
      512
 93
        0
300

 40
0.0
140
1.0
 94
        5
 62
     0
340
11
144
0.25
309
CONTENTFORMAT_END
171
     0
 94
        0
309
TABLEFORMAT_END
  1
CELLSTYLE_BEGIN
 90
        1
 91
        1
300
_TITLE
309
CELLSTYLE_END
300
CELLSTYLE
  1
TABLEFORMAT_BEGIN
 90
        5
170
     1
 91
        0
 92
        0
 62
   257
 93
        1
300
CONTENTFORMAT
  1
CONTENTFORMAT_BEGIN
 90
        0
 91
        0
 92
      512
 93
        0
300

 40
0.0
140
1.0
 94
        5
 62
     0
340
11
144
0.18
309
CONTENTFORMAT_END
171
     0
 94
        0
309
TABLEFORMAT_END
  1
CELLSTYLE_BEGIN
 90
        2
 91
        1
300
_HEADER
309
CELLSTYLE_END
300
CELLSTYLE
  1
TABLEFORMAT_BEGIN
 90
        5
170
     1
 91
        0
 92
        0
 62
   257
 93
        1
300
CONTENTFORMAT
  1
CONTENTFORMAT_BEGIN
 90
        0
 91
        0
 92
      512
 93
        0
300

 40
0.0
140
1.0
 94
        2
 62
     0
340
11
144
0.18
309
CONTENTFORMAT_END
171
     0
 94
        0
309
TABLEFORMAT_END
  1
CELLSTYLE_BEGIN
 90
        3
 91
        2
300
_DATA
309
CELLSTYLE_END
  0
ENDSEC
  0
SECTION
  2
ACDSDATA
 70
     2
 71
     2
  0
ACDSSCHEMA
 90
        0
  1
AcDb_Thumbnail_Schema
  2
AcDbDs::ID
280
    10
 91
        8
  2
Thumbnail_Data
280
    15
 91
        0
101
ACDSRECORD
 95
        0
 90
        1
  2
AcDbDs::TreatedAsObjectData
280
     1
291
     1
101
ACDSRECORD
 95
        0
 90
        2
  2
AcDbDs::Legacy
280
     1
291
     1
101
ACDSRECORD
  1
AcDbDs::ID
 90
        3
  2
AcDs:Indexable
280
     1
291
     1
101
ACDSRECORD
  1
AcDbDs::ID
 90
        4
  2
AcDbDs::HandleAttribute
280
     7
282
     1
  0
ACDSSCHEMA
 90
        1
  1
AcDbDs::TreatedAsObjectDataSchema
  2
AcDbDs::TreatedAsObjectData
280
     1
 91
        0
  0
ACDSSCHEMA
 90
        2
  1
AcDbDs::LegacySchema
  2
AcDbDs::Legacy
280
     1
 91
        0
  0
ACDSSCHEMA
 90
        3
  1
AcDbDs::IndexedPropertySchema
  2
AcDs:Indexable
280
     1
 91
        0
  0
ACDSSCHEMA
 90
        4
  1
AcDbDs::HandleAttributeSchema
  2
AcDbDs::HandleAttribute
280
     7
 91
        1
284
     1
  0
ACDSRECORD
 90
        0
  2
AcDbDs::ID
280
    10
320
78B
  2
Thumbnail_Data
280
    15
 94
     4715
310
89504E470D0A1A0A0000000D49484452000001000000010008030000006BAC585400000300504C5445FFFFFF000000C8C8C80000000000000000000000000000000000000000000000000000330000660000990000CC0000FF0033000033330033660033990033CC0033FF0066000066330066660066990066CC0066FF0099
310
000099330099660099990099CC0099FF00CC0000CC3300CC6600CC9900CCCC00CCFF00FF0000FF3300FF6600FF9900FFCC00FFFF3300003300333300663300993300CC3300FF3333003333333333663333993333CC3333FF3366003366333366663366993366CC3366FF3399003399333399663399993399CC3399FF33CC00
310
33CC3333CC6633CC9933CCCC33CCFF33FF0033FF3333FF6633FF9933FFCC33FFFF6600006600336600666600996600CC6600FF6633006633336633666633996633CC6633FF6666006666336666666666996666CC6666FF6699006699336699666699996699CC6699FF66CC0066CC3366CC6666CC9966CCCC66CCFF66FF0066
310
FF3366FF6666FF9966FFCC66FFFF9900009900339900669900999900CC9900FF9933009933339933669933999933CC9933FF9966009966339966669966999966CC9966FF9999009999339999669999999999CC9999FF99CC0099CC3399CC6699CC9999CCCC99CCFF99FF0099FF3399FF6699FF9999FFCC99FFFFCC0000CC00
310
33CC0066CC0099CC00CCCC00FFCC3300CC3333CC3366CC3399CC33CCCC33FFCC6600CC6633CC6666CC6699CC66CCCC66FFCC9900CC9933CC9966CC9999CC99CCCC99FFCCCC00CCCC33CCCC66CCCC99CCCCCCCCCCFFCCFF00CCFF33CCFF66CCFF99CCFFCCCCFFFFFF0000FF0033FF0066FF0099FF00CCFF00FFFF3300FF3333
310
FF3366FF3399FF33CCFF33FFFF6600FF6633FF6666FF6699FF66CCFF66FFFF9900FF9933FF9966FF9999FF99CCFF99FFFFCC00FFCC33FFCC66FFCC99FFCCCCFFCCFFFFFF00FFFF33FFFF66FFFF99FFFFCCFFFFFF0000000D0D0D1A1A1A2828283535354343435050505D5D5D6B6B6B787878868686939393A1A1A1AEAEAEBB
310
BBBBC9C9C9D6D6D6E4E4E4F1F1F1FFFFFF000000000000000000000000000000000000000000000000000000000000B0E2D23500000F264944415478DAED9D5972DC3A0C45F1EDFDAFF0AEE455C5655B22315C0C54B75FE28FA4BABA25118724888994E02FFF13C85FFDF70FC00B015CC7E15F044095FA752C8E03F8918814
310
70F9D96922A7017CCA52E85AFC5CF9EB01D4457860561C06D015E03C81830026F4DA97AD728EC129005F4D6E21B85E7C8AC11900DF8DFD9200B5B6DDA7D0110427005C1AFADD8785C6631F3F0710CC03B83612972E44E136BBBB328E6018C032536F2640AAEDB81903CE23DE0AC0DA34C8DD0642F6465F17C37FCE7B00507A
310
06525363AB0ADDDB38370CA600680D82620A21732B57810C219801A037E6368FE97663F3072C6E23082600180D81610D835E432E57420E21E803301B6101F09A0DCB9140F6E94F01B01B807D20478360F9D93D2E206710F400780FF700E817420F098413A785A00500D477BA3B044E7E241FF628004803C03EDEA50EA03108
310
EA0000168EE510074B436AF5A88B51BD12FCD76644C0B7107300EA72E0B4FC5E5CEC33D80327189478269E039031E7FCC0A0C3260BA036084A00B22DA903E83DF7140048050072005001501206C7E51F037082401E000A3FA902A83C1B6701A0227FA404783298E9A13A00D47E14CC017606949F3F06A0FA7C3823FD230360
310
9E400A00CABFB201242F800C13A001D0D544BC4E77A6005C62930468B1E838EC5B00F863634F8F00B2C02367F1C101D0EA5CB6C77200E456CDA33AF9E701047E78B2DC889FD97A64EBFEB48C6BE32EF79CE5A4D63D46006B0010177BF8E0E10D81A4CA887B3851020ADAB8028195E939A278B53092D41F610A00AE83A04860
310
06002FBF69611400FC64A7C2C7137380295F6E01B8763F26005C73337502230012F20BD8184A0A40974002402E7E64C81F1380B0E13D7281097B8FAEE32F0D802DA1DE06B06526280274EB356FB0014049A8A30700CA5060EC814C8C072D84C6956C4D06844FF0488F806DF4F5CC66C34A24BD07F04947902D7101200690BB
310
DE02C4E6944A006A0400AEB7DDCBC12A1F36A50201293F97EEF39A9A01D0957F04809796A88C813E80C4E2033288E000F0B312C418A0E740F55AAF396C52A90C8020408DE2BD82AA0260FF964D2A41C0C6B6C2BE23BBD19D4A861D88F4806B03206B78526D52CCDCB51CDE03D091DF0E560AD8D023327AC90700DDA8325D01
310
848FAAB4BF0D4072CDD27D9D258E970740E7D05200C8A44CD42ED800AE623B5F17E5173AABD4039021A03BBC5FDEA0EB0E172A4C9A00F89C0C1FBE5C033E3F812B585FE682E43509BA0068027BD0731578FD4818C15EF9590740E29E610477D9FDE1C6C5D485A0247F46B577017063E026A1111DBF84B4A9248FBB08750064
310
B3924C107B8FF8AB4AEF3E108840BBA400A8C2F2752845027B505C5B17240B20700E1A00B25499289E0AE0AAFC2D6245F9331ECE04808880993F56573C7DCA24C3037500E961E51A642A80C019F2FD8296FC9A973803C027B0C9259E33140388E3C3CF03F043799B5C6A245B5BFF4BF27700408A001C67C7FE28B6C4D68554
310
F90B2F4502009797F4737D4E2D8B8D8ECC1C924D0D0014343D47C00879A87513ECDD52F138335E0C7E0070A9710680ACCB22E600E00C00BA36890770318CEEAE600300F11B1780B74597B8B527801614B83758718B4C80A1FCF1A6E60400CA36D12CDB754EEE85504694200AAB8603F0DAEE0480689B3E9862408780D7C7CB
310
B76C5CDD1FFD71B808F1FE4DBE0D56858F16EED8012002C0141029172500841B7C490BCD0CEBC21E0277BFC1BA05628B93928104909BEAFB9AA6CF4E4BA92945549A7AF5926E200F9A3000F087D578F98BC8AAD3CC5FD101A873DBCBB8380DB608980058A32F02A028B85D3A5D51E86BA19370F11B9C0240D6235B017CA212
310
D8F005FC8BCD880A57421C00489E596612F0AD38CD052C5E2BD9C358B512220500BDF7125148EF410074934300B923CF42E7D69EC64B7214B602D1DDC7E291957B21E98D49FA1002C3B91567BDDF437F4E3810E423D208B002F8442DF93F7D81330321EEC0E72F6D1D587A3DA51402CACDE246C13AB4AD902701C0B27FCD1C
310
72BEBD2A80CA3D9D7D5B0A0165BC3BA9A0ED7CE554682C68EB05007AF7353D77838003408D995A51865E4FC11A0195BB5B003C029BFBA0270A2CD58F96F0EB14904AF0955A129522819D84EE05C71AB22CFCA604FFD4A948878169B1682251001C37A1D8AEEB6B35D65540C49E0CA84C2FDBF0DB86BC1E49F0FCC462AB6E1B
310
6AB00190784F6E628279D69B0FC07093061A7537FA760002EAF262345C890DAD253191C9DB6AD2EA0B6A000489DB7873DF4E01421179E9632B690A278D946A350D80B81BECBA3647A12F7901F1D446FC8C6C9FDD77822E7B6C911A4F443344FC2CE81A08154F7E1F3DBBFD52EE9A006B84249FF88D4F5630D3A0EA8E5946FE
310
42A33A00240C55393FF542A661D42BF11C327B283E0041D5A6E2264C0C2035A8F3B963890008A4BCBC92ABA143805CFF9CD644B6511B0035FB8CDA673725AC5848D93FA2E51203481CAD844C1F3946ADA508E98A19A070C2D40540FAE4C68406B28BA13DF9855EE553BED15E0DD200E0D8E88E55E011103D8DEEFBF475F96D
310
004902B12ED69364F1A60142DD37E47700E42601B320792B9FA537A9B5EEA500C4F1016C1D2629F98339DF91DF035022608B278575CD8EE6EC96474D7E1740651248A81232E253C9C1D600F001A408DC3E4AA5BF692B6750FE1100BA1A9069087B02BE3F012200A549B0B769507871F6579C00509F04BCFD96B4EE67E5FF01
310
D03FBD336CD6886BA30EAEBAFC5FC990C23E396F12D833B3EBD7D5E5AF0238A0CA1B4EADAE5C3AF2C72340B5DDBC4F6FFA274D001FB7BB799F5E201BF5E97F3C02E483F9241D1DF0BD5DE2FB9FE593DB3B97DF22739EE27B8C80D22A409C2EC3C9756767FECEED1CE9E8809A1D4014F4D7D4566473CEAF0218947F42775316
310
D7A01DD03004E7AC892102B684C3DEA08C3A02F06D9FF624988B07C0F356262D194C860326224262CAFFDB03223DF9E3053B111B7772C7CD49D007804450B4D2E176B4F0744CB01C142652C7BF212C3E267F3E35646E4471D30D2F06102EE1E1DC0E0838A519473243FDE4682D3DAC56507026C5687234F9E6A14462B4991E
310
9F2D0F385C20A19F0C522990209FD72A906896C8086BC6846AD03B6DEDA91219A47B9E181562C82FAEA1435AC619085D0074F6C22B140C4AA9FC719F6F8F4960B050D2CD838826BF390C245128599A0D41A12412C20BD533BAA3E00130C7800399875000C0D8B7E67A65384AF7FD70572144A862E1A0315E684D03502E970F
310
1B62388A4A9DBC2026108E0B6A7E5EFF33778CF0485D37760B14DC86ECBA51209E05C4DE29424D33005219263E8AB1886A0220632B99161100505F5E2D0DA90B735F12A4BA692A6FAADE67FF0AA0B36D4E1C374D91DF05406E9B2B9AEBABB8631B27CDD35E6C5BC8DA48A96E9CB4178402847DE3647BEBAC61F6075B675D00
310
DAB8E8B66D574F47374F9B31CCED5B670114314264D5062E936160FB7CE4F8E8F25F368E5A4320DA3EDF6AA7BD7D5EA475DF2D442C963120F6192A22C66D5A3D651FA0F0C0111A8182D814DD3E06D4D87BA3BD772528C543540C3FCE8CEF8700EC23E70C9FBAD2E6EB8142A78FD131F31DDEAC5009988F488B3F75905268F2
310
2BF69B88768448E92025A92D89AB4BF8D2A3B44CB387B8B6320A88A3B45804AA2A7E1D002E22EA1FA6563D4E4F32F26B869D6A251217270DA3F038BD63072AEAC941D74F3460043528ACF814000F811BA58BB21A8AAA3483E6766E497208B823359F3E54554D22BDF25055EA58DD3018A5A5AC55D98CC5710BA72C86641808
310
8B6530013C78B0B26296FBCA4E9E3858F9D1A3B5BDAA20F1DE524C14A20693D806401FAE2E19E5E0AD057B6854F70A29BB6777399814F1A9E3F5FD6CB9EC1511FEF1FA9CD37A27CCE5C8D32F58E8944CA89D2E832F5860BA494A00665FB1A187C426001C7BC5C69997ACE833A65910D302F0F06B763CE7B6510B82FA6B76E6
310
5EB4A42B6EA7F2D7D497856060E3454BCFBE6A4BCD0287DA8C9805F4372F7ED99AEADBC69E7EA610E62100AEFCF6EBF68A008EBE6EAFB487CCF50EEC172E462195F20B17F99746CE0008E4B75EB919C6D4A65F39CA01C86F22F3FD133100C49574EEA29EB0F65C87FFDF6B77CFBD78D90CF778C95AD8AF61C91078F0CDD394
310
FCFE4BA6962FD47C7892400FC0E0CBD75583C02C70D4ED9F0A81C7DE3E1FC8EF979D69EF8B480170865F0F004D250CCF7800FEDCF343607ECB3EA521401340427EA78E42E743FAB796A9D804C0A946570D0755ACB200708B5FF20412AABD0E20943F51426E59464488C3AB07AE03882D64263A1986EB4C3D91327AB40B78D3
310
883525D095DF4C199981E5CCD3B2FD1703F043454C6C9689565A9A2215E7330BC2CF01A062D3ECB4A85EEB6A5CDE3DE4C3A749F919A5C9CFF724013ED44BC70FD1957F02004D800FF60B1B59021F8F72C3631C00486F0C9C0440C9CF0A300660F5BDE8609EA4B6195211D94C2093D415E99587DE0B0C6103EC68CACFCFF730
310
C24810A0F70243D81C0B38F973CDFFF60679841C0190F2C700D65AE2726612B9295001A01188C50B2B2C2F77A4F76AF15E5B2AF1C3CDBF330046E4074FA536042E81784E7E06C0F72EBB8EFC33001204C0C94F01F83A6C84AAC7CD8DDE6CEA0FB41206273F0740D8E36AF2E1CB6CEE9326004E7E1240D8FF61ED02F20052A5
310
88DAD5AC6442FDCE2F5DA9F65CDEEA3577D6A863606E04F0054A790729B7DE853BE6B9E5AA3002D81B9E064077D62C00FE80A9B479905B4D849EB2A300F867BF05005EAC0C800681F450CFA4BCCAC3240D805D58120340F306DD657358FE2480EAF3FD753DB36C4ECB9F05C0DA8D29CB2EB16CE436079E0020D923DBAAFE2D
310
9BF16B757F0580B0EE63C345720248D3F25700E49B3105E080FC25007410A938D0CDAF302F7F0D40B225A803481DF5593B4E428AA7668C00F87C910466009404A90248B5C636035D9C7EBA6F48FE3A00411740245C0A00EA6254AF1476CB02B5A3370E8DE240F7F70008995745B1862701A02543E362A1F62CB0168D9F38C4
310
81E1DF07E09EB2600320833D1C003405680288B7E866963398CB27CE883F0120DAA4BDD70CA7560F1700061A3F00C0DFA6EFD6AEF8B7DA539DD3E24F01700E6A584B63336B0BD654E7B8F87300D4C0F97E44640E26EE994EFF612F0720FA6135B79452D6C0300060B2CD9300B69E41388F7D945A920F986DF12C80558B5DB7
310
8915AC4C6C593E8C37771C8076EC4C295403ED8DBEF38D3D00405163B5A0C376CAEE89A61E01F033531B47956E3B2FCF34F41000B9BE2BB4750F74EFF13200DDFEB76309BF07405702FC3F00A42A36163FE0B4FCC701AC7101FA2C9E8160CF9B00A014DB7965F74600DE41EC3701F00E7FFF001C783FEEEFFAFB0F10AB32FB
310
355ADDD80000000049454E44AE426082
  0
ENDSEC
  0
EOF
